» » »

Red Hot Chili Peppers, Buckle Down Bass tabs (ver.4)

Artists:  A B C D E F G H I J K L M N O P Q R S T U V W X Y Z # 

Buckle Down Bass tabs (ver.4)

Red Hot Chili Peppers Tabs
Rating:
0/5 (0 votes)
Buckle Down lessons Tabs too difficult? Try these video lessons and learn fast
                Bcukle Down
Red Hot Chili Peppers
The Red Hot Chili Peppers
E A D G
----------------------------------------------------------------------------
Verse's


-------------|
-------------|
--0--2-3--x--|
-------------|

-------------|
-------------|
--0--2-3--x--|
-------------|

-------------|
-------------|
--0--2-3--x--|
-------------|

----------------|
----------------|
--0--2-3--------|
-----------0--0-|

-------------|
-------------|
--0--2-3--x--|
-------------|

-------------|
-------------|
--0--2-3--x--|
-------------|

-------------|
-------------|
--0--2-3--x--|
-------------|

-----------------------------------------------------------------------------|
-----------5--4--------------------------------------------------------------|
--0--2-3---------7-----------------------------------------------------------|
-----------------------------------------------------------------------------|
-----------------------------------------------------------------------------|
Pre Chorus

-----------------------------------------------------------------------------|
-----------3--3-------------3--0--3-3-3---------------------------5h6-5-3h55-|
--5--2--3--------5---2---3----------------5--2--3--3---3-5--2--3-------------|
-----------------------------------------------------------------------------|

----------------------------------------------------------------------------
Verse 2

-------------|
-------------|
--0--2-3--x--|
-------------|

-------------|
-------------|
--0--2-3--x--|
-------------|

-------------|
-------------|
--0--2-3--x--|
-------------|

----------------|
----------------|
--0--2-3--------|
-----------0--0-|

-------------|
-------------|
--0--2-3--x--|
-------------|

-------------|
-------------|
--0--2-3--x--|
-------------|

-------------|
-------------|
--0--2-3--x--|
-------------|

-----------------------------------------------------------------------------|
-----------5--4--------------------------------------------------------------|
--0--2-3---------7-----------------------------------------------------------|
-----------------------------------------------------------------------------|
-----------------------------------------------------------------------------|
Chorus

---------------------------------|
--------------7------7---------7-|
---------------------------------|
----3-2-1-0--------0------0-0----|
    T T T T   P    T P    T T  P
----------------------------------------------------------------------------
Slappy Part                  Ending Of Slappy Part
----------------------------|----------------|
----------------------------|--5--5--5--5--5-|
-----7-----5-----4----5--5h7|----------------|
--0----0-0---0-0---0-0------|---X--X--X--X---|
  T  P T T P T T P T TP  P     PT PT PT PT
----------------------------------------------------------------------------
Guitar
Solo

-------------|
-------------|
--0--2-3--x--|
-------------|

-------------|
-------------|
--0--2-3--x--|
-------------|

-------------|
-------------|
--0--2-3--x--|
-------------|

-----------------------------------------------------------------------------|
-----------------------------------------------------------------------------|
--0--2-3--x------------------------------------------------------------------|
--------------1/17/1---------------------------------------------------------|
-----------------------------------------------------------------------------|
Verse

-------------|
-------------|
--0--2-3--x--|
-------------|

-------------|
-------------|
--0--2-3--x--|
-------------|

-------------|
-------------|
--0--2-3--x--|
-------------|

-----------------|
-----------------|
--0--2-3---------|
-------------0-0-|

-------------|
-------------|
--0--2-3--x--|
-------------|

-------------|
-------------|
--0--2-3--x--|
-------------|

-------------|
-------------|
--0--2-3--x--|
-------------|

-------------------|
-----------5--4----|
--0--2-3---------7-|
-------------------|

----------------------------------------------------------------------------
Pre Chorus

-----------------------------------------------------------------------------|
-----------3--3-------------3--0--3-3-3---------------------------5h6-5-3h55-|
--5--2--3--------5---2---3----------------5--2--3--3---3-5--2--3-------------|
-----------------------------------------------------------------------------|

----------------------------------------------------------------------------
Verse 3

-------------|
-------------|
--0--2-3--x--|
-------------|

-------------|
-------------|
--0--2-3--x--|
-------------|

-------------|
-------------|
--0--2-3--x--|
-------------|

----------------|
----------------|
--0--2-3--------|
-----------0--0-|

-------------|
-------------|
--0--2-3--x--|
-------------|

-------------|
-------------|
--0--2-3--x--|
-------------|

-------------|
-------------|
--0--2-3--x--|
-------------|

-----------------------------------------------------------------------------|
-----------5--4--------------------------------------------------------------|
--0--2-3---------7-----------------------------------------------------------|
-----------------------------------------------------------------------------|
-----------------------------------------------------------------------------|
Slappy Part                  Ending Of Slappy Part
----------------------------|----------------|
----------------------------|--5--5--5--5--5-|
-----7-----5-----4----5--5h7|----------------|
--0----0-0---0-0---0-0------|---X--X--X--X---|
  T  P T T P T T P T TP  P     PT PT PT PT
----------------------------------------------------------------------------
Outro

-----------------------|
---------5-4-7---------|
--0-2-3----------------|
-----------------3-2-1-|
            

comments powered by Disqus
↑ Back to top | Red Hot Chili Peppers Bass for Buckle Down. Lyrics for acoustic guitar and electric guitar. Tablatures and chords are parodies/interpretations of the original songs. You may use it for private study, scholarship, research or language learning purposes only