» » »

Red Hot Chili Peppers, Bob Bass tabs (ver.1)

Artists:  A B C D E F G H I J K L M N O P Q R S T U V W X Y Z # 

Bob Bass tabs (ver.1)

Red Hot Chili Peppers Tabs
Rating:
0/5 (0 votes)
Bob lessons Tabs too difficult? Try these video lessons and learn fast
                Red Hot Chili Peppers
BOB

This song is a b-side from One Hot Minute.
(about the 4th song down)
I found this site and heard this bass line and decided to
learn it becuase there werent any tabs for it.
This was really hard to figure out, but i finally did
it and im really proud.

Intro
G----15~-h16-p15-/9~--9-11-9-11-9-11----9-11-9-11-9-11-9-11-|
D-----------------------------------------------------------|
A-----------------------------------------------------------|
E--14---------------------------------x---------------------|

G--15-16-15-9~--9-9h11-9-11-9-11---|
D--13-14-13-9~--9-9~~~~~~~~~~~~~---|
A----------------------------------|
E----------------------------------|

Main Riff
G---15-------13----------11----11---11----|
D-----------------------------------------|
A-----------------------------------------|
E-14--14---12---12----7------7-----7------|

G---15-------13---------11--------9-------|
D-----------------------------------------|
A-----------------------------------------|
E-14--14---12---12----7----7----5---5-----|

Interlude      "I Never See You"
G-------------------|
D-------------------|
A-------------------|
E--/15-15-15-\3--3--|


Main Riff
G---15-------13----------11----11---11----|
D-----------------------------------------|
A-----------------------------------------|
E-14--14---12---12----7------7-----7------|

G---15-------13---------11--------9-------|
D-----------------------------------------|
A-----------------------------------------|
E-14--14---12---12----7----7----5---5-----|

Interlude
  After the first time there is alot of improv from flea For Ex:
G----------------------|
D----------------------|
A---------17-----------|
E--/15-15----15-\3--3--|


Small Pause


Main Riff
G---15-------13----------11----11---11----|
D-----------------------------------------|
A-----------------------------------------|
E-14--14---12---12----7------7-----7------|

G---15-------13---------11--------9-------|
D-----------------------------------------|
A-----------------------------------------|
E-14--14---12---12----7----7----5---5-----|


Guitar Solo
G--------------------------|
D--------------------------| a small bit of improv here too
A--------------------------|
E--/15-15-15\--/15-15-15\--|

G------------------------------|
D--16-14-12--16-16-16----------|
A---------------------17-15----|
E---------------------------15-|

G------------------------------------------|
D--16-14-12--16-14h16-14-------------------|
A--------------------------17-15-----------|
E--------------------------------15-15-15--|

Outro (small bit after the actual song is over)
G-------------------|
D-------------------|
A-------7-8b-7------|
E--7-10-------10-7--|
            

comments powered by Disqus
↑ Back to top | Red Hot Chili Peppers Bass for Bob. Lyrics for acoustic guitar and electric guitar. Tablatures and chords are parodies/interpretations of the original songs. You may use it for private study, scholarship, research or language learning purposes only