» » »

Blue Monday Tabs

Artists:  A B C D E F G H I J K L M N O P Q R S T U V W X Y Z # 

Blue Monday Tabs

(ver. 1)
Red Hot Chili Peppers Tabs
 Rating:
4/5 (4 votes)
    Blue Monday lessons Tabs too difficult? Try these video lessons and learn fast
                John played this when I saw them live so I thought I'd tab it.
the original by New Order is great and they played it well.

-|-----------|-------------|------------|-----------|-------------------------
-|-----------|-------------|------------|-----------|-------------------------
-|-----------|-------------|------------|-----------|-------------------------
-|---7----7--|----0-----0--|------------|-----------|-------------------------
-|-0----0----|--5----5-----|---7-----7--|----7------|-------------------------
-|-----------|-------------|-0----0-----|-0-----0-7-|-------------------------
                                                                              

-|-----------|-------------|------------|-----------|-------------------------
-|-----------|-------------|------------|-----------|-------------------------
-|-----------|-------------|------------|-----------|-------------------------
-|---7----7--|----0-----0--|------------|-----------|-------------------------
-|-0----0----|--5----5-----|---7-----7--|----7------|-------------------------
-|-----------|-------------|-0----0-----|-0-----0-7-|-------------------------
                                                                              

-|-----------|-------------|------------|-----------|-------------------------
-|-----------|-------------|------------|-----------|-------------------------
-|-----------|-------------|------------|-----------|-------------------------
-|---7----7--|----0-----0--|------------|-----------|-------------------------
-|-0----0----|--5----5-----|---7-----7--|----7------|-------------------------
-|-----------|-------------|-0----0-----|-0-----0-7-|-------------------------
                                                                              
and so forth, enjoy!
            
Submit corrections

↑ Back to top | Red Hot Chili Peppers Tabs for Blue Monday. Lyrics for acoustic guitar and electric guitar. Tablatures and chords are parodies/interpretations of the original songs. You may use it for private study, scholarship, research or language learning purposes only