>
 >
Arpeggiating

Arpeggiating Bass Tabs

Red Hot Chili Peppers - Arpeggiating chords, tabs, tablatures, lyrics

Guitar lessons | Add/correct | Request | Top 50 tabs Artists:  A B C D E F G H I J K L M N O P Q R S T U V W X Y Z 0-9

Arpeggiating Bass Tabs – Red Hot Chili Peppers

CD, Sheet music, Poster

Do you like Arpeggiating? Share with your friends now
Bass Tabs
This is played in flea's master sessions video.
   PLEASE rate this.

g|---17------16------14----------------------14--------------17------14------------
d|------14------14------14---15-14---15-14------14---15-15------14------14---15-14-
a|-0-------0-------0-------0-------0-------0-------0-------0-------0-------0-------
e|---------------------------------------------------------------------------------

g|---14------    |-12------|    |---14--------------12------14------12------14------
d|------14---    |----14---|4x  |------14---15-14------14------12------12------15---
a|-0-------0-    |-------0-|    |-0-------0-------0-------0-------0-------0-------0-
e|-----------    |---------|    |---------------------------------------------------

g|-14------12------7-----7-----8-----9-----    |-11-----|    |-12-----|
d|----14------12-----9-----7-----7-----7---    |----7---|3x  |----7---|6x
a|-------0-------0-----0-----0-----0-----0-    |------0-|    |------0-|
e|-----------------------------------------    |--------|    |--------|
                                                             STRETCH
g|-9-----7-----6-----5-----7-----5-----4-----2------------2-----2------------------
d|---7-----7-----7-----7-----5-----3-----2-----2----2-3-----2-----2---3-2----------
a|-----0-----0-----0-----0-----0-----0-----0-----0------0-----0-----0-----0--0-0-0-
e|---------------------------------------------------------------------------------

g|-14------|    |---------0----14--------------14------17------0----14--------------
d|----14---|4x  |-15-14-----------14---15-14------14------14-----------14---15-14---
a|-------0-|    |-------0----0-------0-------0-------0-------0----0-------0-------0-
e|---------|    |-------------------------------------------------------------------

g|--17------17------------17------17------14------|
d|-----14------14---14/17----17------17------15---|
a|--------0-------0-------------0-------0-------0-|hold
e|------------------------------------------------|
   This sounds good fast or slow (I like it better fast;)





Comments


Popular Red Hot Chili Peppers tabs & chords
Pretty Little Ditty 1 Bass Tabs
Annie Wants A Baby 1 Chords
Funny Face Chords
Sir Psycho Sexy Outro Chords
By The Way Intro Tabs
Cabron 3 Tabs
Did I Let You Know 2 Tabs
Fortune Faded 3 Tabs
Tear Tabs
Bicycle Song Ukulele


Song lyrics



↑ Back to top | Tablatures and chords are parodies/interpretations of the original songs. You may use it for private study, scholarship, research or language learning purposes only
© 2014 AZChords.com Contact us | Privacy policy | DMCA | Add/correct tabs | Request tabs | Top 50 tabs