>
 >
Green Aisles 1

Green Aisles 1 Guitar Tabs

Real Estate - Green Aisles 1 chords, tabs, tablatures, lyrics

Guitar lessons | Add/correct | Request | Top 50 tabs Artists:  A B C D E F G H I J K L M N O P Q R S T U V W X Y Z 0-9

Green Aisles 1 Guitar Tabs – Real Estate

CD, Sheet music, Poster

Do you like Green Aisles 1? Share with your friends now
Bass TabsChordsTabsTabs v2Ukulele
                      --------------------------------
                        Real Estate - "Green Aisles"
                      --------------------------------
                              from 'Days' (2011)
                           by Courtney/Real Estate

+++++++++++++++++++++++++++++++++++++++++++++++++++++++++++++++++++++++++++++

INFO:

There's already a tab up for the chords, which I used to use to play along to this song, 
but being only three chords, I got a bit bored eventually and decided to make this.

There are MANY layers of guitar, I will do my best to tab as many as I can hear and 
label each separately and accurately, in addition to providing rhythm chords beneath the tab.

LEGEND:

/ - Slide up
\ - Slide down
h - Hammer-on
p - Pull-ff

+++++++++++++++++++++++++++++++++++++++++++++++++++++++++++++++++++++++++++++
-----------------------------------------------------------------------------

INTRO:


GUITAR ONE:

    F
e|------------------------------------------|
B|----1---1----1---1----1---1----1---1------|
G|------2--------0--------2--------0--------|  REPEAT till 1:03, etc.
D|--3--------0--------3--------0------------|
A|------------------------------------------|
E|------------------------------------------|

During breaks similar to 1:03, play this instead:

e|--0--0--0--0--0--0--0--0------------------|
B|--3--3--3--3--3--3--3--3------------------|
G|--4--4--4--4--4--4--4--4------------------|
D|--5--5--5--5--5--5--5--5------------------|
A|--5--5--5--5--5--5--5--5------------------|
E|------------------------------------------|



GUITAR TWO:


e|--------0----------1--0---------0---------|
B|----1-----1---1-----------2h3-------------|
G|--2---2-----2---2---2---2-----2-----------|  REPEAT till 1:03, etc.
D|------------------------------------------|
A|------------------------------------------|
E|------------------------------------------|

During breaks similar to 1:03, play this instead:

e|----0---0---0---0-------------------------|
B|--3---3---3---3---3/1---------------------|
G|------------------------------------------|
D|------------------------------------------|
A|------------------------------------------|
E|------------------------------------------|


GUITAR THREE (0:18-0:56):


e|----------------3-------------------------|
B|-----1-----1/5-----3--1-------------------|
G|--2-----2---------------------------------|  repeat this line 6 times
D|------------------------------------------|
A|------------------------------------------|
E|------------------------------------------|

e|-----------------3--0--5------------------|
B|-----1-----1/5----------------------------|
G|--2-----2---------------------------------|
D|------------------------------------------|
A|------------------------------------------|
E|------------------------------------------|


e|-----------------8---------5--------------|
B|-----10-----5/8-----8--5------------------|
G|--9------9-------------------7-5-7-5-5/9--|  repeat this line 3 times
D|------------------------------------------|
A|------------------------------------------|
E|------------------------------------------|

e|-----------------8---------5--5--5--5-----|
B|-----10-----5/8-----8--5------------------|
G|--9------9--------------------------------|
D|------------------------------------------|
A|------------------------------------------|
E|------------------------------------------|


VERSE:


GUITAR ONE: continue playing
GUITAR TWO: continue playing
GUITAR FOUR (Slide):


e|---------------------------------------------------|
B|---------------------------------------------------|
G|--------------------------------------5/7----7\5---|
D|---------------------------------------------------|
A|---------------------------------------------------|
E|---------------------------------------------------|
  Under dormant trees under bright lit skies


e|--------------------------------------------------------|
B|--------------------------------------------------------|
G|------------------------------------------5/7----7\5----|
D|--------------------------------------------------------|
A|--------------------------------------------------------|
E|--------------------------------------------------------|
  Mountains of maple leaves standing side by side


e|--------------------------------------------------------|
B|--------------------------------------------------------|
G|------------------------------------------5/7-----9\5---|
D|--------------------------------------------------------|
A|--------------------------------------------------------|
E|--------------------------------------------------------|
  The phones lines, the street lights led me to you


e|--------------------------------------------------------|
B|--------------------------------------------------------|
G|------------------------------------------5/7-----9\7---|
D|--------------------------------------------------------|
A|--------------------------------------------------------|
E|--------------------------------------------------------|
  And if you just sit tight, I'll be there soon


CHORUS:


GUITAR ONE: see chords
GUITAR TWO: see GUITAR FIVE
GUITAR FOUR (Slide) cont'd:


e|---------------------------------------------|
B|---------------------------------------------|
G|-7\5-------5\2----------------2/7------------|   repeat this line 3 times
D|---------------------------------------------|
A|---------------------------------------------|
E|---------------------------------------------|
  All those wasted miles
  All those aimless drives through green aisles


e|---------------------------------------------------|
B|---------------------------------------------------|
G|------------------------2/5--------5/9--------9\7--|
D|---------------------------------------------------|
A|---------------------------------------------------|
E|---------------------------------------------------|
  Our careless lifestyle, it was not so unwise, no


GUITAR FIVE:

e|---------------------------------------------|
B|---------------------------------------------|
G|--7--5--4---------0--0h2--0-----0------------|  repeat this line 3 times
D|-----------7-----------------2---------------|
A|---------------------------------------------|
E|---------------------------------------------|


e|-----------------------------------------------------------------------|
B|-------------------------------------1---1---5---5---3---3---3---3\1---|
G|--7--5--4--------0--0h2--0-----0---2---2---0---0---0---0---0---0-------|
D|----------7-----------------2------------------------------------------|
A|-----------------------------------------------------------------------|
E|-----------------------------------------------------------------------|


*You now know what to do for verse and chorus number two.*


INSTRUMENTAL BREAK (2:56-3:53):

GUITAR ONE: continue playing
GUITAR TWO: continue playing
GUITAR FOUR (Slide) con'td:


e|----------------------------------------------------------------|
B|----------------------------------------------------------------|
G|--7\5-------12\5---------7\5--------9\5--------5/9-------5/12---|
D|----------------------------------------------------------------|
A|----------------------------------------------------------------|
E|----------------------------------------------------------------|
   3:04       3:13        3:23        3:32       3:41      3:50


GUITAR SIX (2:56-):

e|---------------------------------------------|
B|---------------------------------------------|
G|--5--7---------------5--7--------------------|  repeat this line 2 times
D|--------5--7---------------5--7--9--5--------|
A|--------------5--7---------------------------|
E|---------------------------------------------|


e|---------------------------------------------|
B|--8--5-----------5-5-------------------------|
G|--------7--5--7----5-------------------------|
D|----------------------9--7-------------------|
A|---------------------------------------------|
E|---------------------------------------------|


e|---------------------------------------------|
B|--8--5---------------------------------------|
G|--------7--5---------------------------------|
D|----------------9--7--5----------------------|
A|-------------------------7-------------------|
E|---------------------------------------------|


e|---------------------------------------------|
B|------------------8--------------------------|
G|--5-----5h7--7/9-----------------------------|
D|-----7---------------------------------------|
A|---------------------------------------------|
E|---------------------------------------------|


e|---------------------------------------------|
B|--10--8--5--8--------------------------------|
G|---------------7--5--------------------------|
D|---------------------------------------------|
A|---------------------------------------------|
E|---------------------------------------------|



e|---------------------------------------------|
B|--8--5--8-----5------------------------------|
G|-----------7-----7--7\9----------------------|
D|---------------------------------------------|
A|---------------------------------------------|
E|---------------------------------------------|


e|---------------------------------------------|
B|--5-----5--5/8--8h10--5----------------------|
G|-----7---------------------------------------|
D|---------------------------------------------|
A|---------------------------------------------|
E|---------------------------------------------|


e|---------------------------------------------|
B|---------------5/8---------------------------|
G|---5-----5--7--------------------------------|
D|------7--------------------------------------|
A|---------------------------------------------|
E|---------------------------------------------|


e|---------------------------------------------|
B|--------6--5---------------------------------|
G|--5-----------5------------------------------|
D|-----7-----------7---------------------------|
A|---------------------------------------------|
E|---------------------------------------------|


GUITAR TWO (3:51-4:00):

e|---------0--------------1----0---------0---------1---0---------0-----|
B|-----1-----1---1---1---------------1-----1---1-----------2h3---------|
G|--2----2-----2---2---2----2---2--2---2-----2---2---2---2-----2-------|
D|---------------------------------------------------------------------|
A|---------------------------------------------------------------------|
E|---------------------------------------------------------------------|



*Reuse the correct patterns above for the rest of the song.*


CHORUS CHANGE-UP (4:32) [switch back to regular mode of playing after this short change 
in timing and pitch]:


GUITAR FOUR (Slide):


e|-----------------------------------|
B|-----------------------------------|
G|--2/5--2/7--7\5--------------------|
D|-----------------------------------|
A|-----------------------------------|
E|-----------------------------------|


GUITAR TWO/FIVE:

e|----------------------------------------------------|
B|-----1---1------3----3-------1---1------5--5-----3--|
G|--2----2-----4----4--------2---2------5---5---4-----|
D|----------------------------------------------------|
A|----------------------------------------------------|
E|----------------------------------------------------|



End on F.



CHORDS (courtesy of 'timherold'):


|-0---0---0-|
|-1---3---1-|
|-2---4---0-|
|-3---5---2-|
|-3---5---3-|
|-x---x---3-|
  F   G   C

Verse:

F                                      G
Under dormant trees, under bright-lit skies
F                                           G
Mountains of maple leaves standing side by side
F                                             G
The phone lines, the street lights led me to you
F                                         G
And if you just sit tight, I'll be there soon

Chorus:

G                 F
All those wasted miles
G                  F
All those aimless drives through green aisles
G                  F
Our careless life style
C         G           F
It was not so unwise, no



----------------------------------------------------------------------------

Ok, well that's it. A nice song, a bit harder to tab than I thought it would be. 
Considering the layering, there's a high chance of me missing or inaccurately tabbing a bit 
here and there, but nothing sounds bad in this to me.

If there are any obvious mistakes feel free to comment. I hope not.

Anyway, this is one of my favorite albums of all time. Have fun. -Andrew.





Comments


Popular Real Estate tabs & chords
Drum Chords
Green Aisles Chords
Kinder Blumen Chords
Out Of Tune Chords
Three Blocks Chords
Wonder Years Chords
Fake Blues Tabs
Green Aisles Tabs
Its Real 1 Tabs
Its Real Ukulele


Song lyrics



↑ Back to top | Tablatures and chords are parodies/interpretations of the original songs. You may use it for private study, scholarship, research or language learning purposes only
© 2014 AZChords.com Contact us | Privacy policy | DMCA | Add/correct tabs | Request tabs | Top 50 tabs