>
 >
Beach Comber

Beach Comber Guitar Tabs

Real Estate - Beach Comber chords, tabs, tablatures, lyrics

Guitar lessons | Add/correct | Request | Top 50 tabs Artists:  A B C D E F G H I J K L M N O P Q R S T U V W X Y Z 0-9

Beach Comber Guitar Tabs – Real Estate

CD, Sheet music, Poster

Do you like Beach Comber? Share with your friends now
Tabs

Tuning: Standard EADGBe

Played with a bit of a swing feel.

Also, I think the rhythm guitarist plays with his fingers.
No pick.  Makes it much easier.

**************************INTRO**************************

  GUITAR 1:
e|----------|
B|----------|
G|-------0--|
D|---0------|
A|-----2----|
E|-3--------| 

repeat until drums enter, then:


**************************VERSE**************************

  GUITAR 1 (RHYTHM):
e|-----------------|-----------------|-----------------|-----------------|
B|-----------------|-----------------|-----------------|-----------------|
G|-------0-------0-|-------0-------0-|-------0-------0-|-------0-------0-|
D|---0-------0-----|---0-------0-----|---3-------3-----|---3-------3-----|
A|-----2-------2---|-----2-------2---|-----2-------2---|-----2-------2---|
E|-3-------3-------|-3-------3-------|-3-------3-------|-3-------3-------|

  -----------------|-----------------|-----------------|-----------------|
  -----------------|-----------------|-----------------|-----------------|
  -------0-------0-|-------0-------0-|-------0-------0-|-------0-------0-|
  ---2-------2-----|---2-------2-----|---1-------1-----|---1-------1-----|
  -----2-------2---|-----2-------2---|-----2-------2---|-----2-------2---|
  -3-------3-------|-3-------3-------|-3-------3-------|-3-------3-------|

  GUITAR 2 RIFF:
e|-----------------|-----------------|-----------------|-----------------|
B|-12--------------|-12-10------10---|-----------------|-12-10------10---|
G|-----------------|-------12------12|----10-----------|-------12------12|
D|-----------------|-----------------|-----------------|-----------------|
A|-----------------|-----------------|-----------------|-----------------|
E|-----------------|-----------------|-----------------|-----------------|

  -----------------|-----------------|-----------------|-----------------|
  -----------------|-12-10------10---|-----------------|-----------------|
  ----9------------|-------12------12|----8------------|-----------------|
  -----------------|-----------------|-----------------|-----------------|
  -----------------|-----------------|-----------------|-----------------|
  -----------------|-----------------|-----------------|-----------------|

LYRICS:
--Verse 1--
What you want is just outside your reach
You keep on searching
You're walking down that Pensacola Beach
You keep repeating

--Chorus 1--
While you're waiting for that sound
Apparatus to the ground
You're stealing from the lost and found
But what you find
Ain't what you had in mind

--Verse 2--
Until you find your Rolex in the sand
You won't be stopping
Until that solid gold is in your hand
You won't be happy

--Chorus 2--
Call your office on the phone
Can't say you won't be coming home
You're balancing vacations on a rope


**************************CHORUS**************************

GUITAR 1 (RHYTHM):

e|-----------------|-----------------|-----------------|-----------------|
B|-------0---------|-------0---------|-------0---------|-----------------|
G|---------------0-|-----------------|---------------0-|-------0-------0-|
D|---2-------2-----|---2-------2---3-|---3-------3-----|---3-------3-----|
A|-----2-------2---|-----2-------2---|-----2-------2---|-----2-------2---|
E|-0-------0-------|-0-------0-------|-3-------3-------|-3-------3-------|

*repeat the above riff 3 times, then:

e|-----------------|-----------------|-----------------|-----------------|
B|-------0---------|-------0-------0-|-----------------|-----------------|
G|---0-------2---0-|---0-------------|-------0-------0-|-------0-------0-|
D|-----------------|-----------2-----|---0-------0-----|---0-------0-----|
A|-3---3---3---3---|-3---3---3---3---|-----2-------2---|-----2-------2---|
E|-----------------|-----------------|-3-------3-------|-3-------3-------|

GUITAR 2 RIFF:

e|-----------------|-10--------s12---|-7-------5---7---|-----7-------0---|
B|-0---------------|-----------------|-----------------|-8-------5-------|
G|-----------------|-----------------|-----------------|-----------------|
D|-----------------|-----------------|-----------------|-----------------|
A|-----------------|-----------------|-----------------|-----------------|
E|-----------------|-----------------|-----------------|-----------------|


**************************INTERLUDE**************************

GUITAR 1 (RHYTHM):
e|-----------------|-----------------|-----------------|-----------------|
B|-----------0-----|-------0---------|-------3---3---2-|-------2---------|
G|-------3b------0-|---0-------0---0-|-----------0-----|---2-------2---0-|
D|---0-------------|-2---2---2---2---|---2-------------|-2---2---2---2---|
A|-2---2-----2-----|-3---3---3---3---|-2-------2---2---|-0---0---0---0---|
E|-3---3---3---3---|-----------------|-0---0---0---0---|-----------------|

* repeat

Then GUITAR 2 a little while after:

e|-----------------|-----------------|-----------------|-----------------|
B|-----------------|-----------------|-----------------|-----------------|
G|-0--7-s9--7--9---|-0--2--s4----2---|-0--7-s9--7--9---|-0--0-2-0-2s4-2--|
D|-----------------|-----------------|-----------------|-----------------|
A|-----------------|-----------------|-----------------|-----------------|
E|-----------------|-----------------|-----------------|-----------------|

* repeat also, then add octave notes:

e|-3--10s12-10-12--|-3--5---7----5---|-3--10s12-10-12--|-3--3-5-3-5s7-5--|
B|-----------------|-----------------|-----------------|-----------------|
G|-0--7-s9--7--9---|-0--2--s4----2---|-0--7-s9--7--9---|-0--0-2-0-2s4-2--|
D|-----------------|-----------------|-----------------|-----------------|
A|-----------------|-----------------|-----------------|-----------------|
E|-----------------|-----------------|-----------------|-----------------|

The song fades out, and GUITAR 2 kind of noodles around.  I won't tab it
out because its not necessary, and its supposed to be improvised!! Enjoy!

===========================================================================
NOTATION LEGEND:


| s  slide to
| b  bend note (in this song, bend the fret 3 up to the pitch of fret 4)
===========================================================================





Comments


Popular Real Estate tabs & chords
Its Real Chords
Pool Swimmers Chords
Dumb Luck Tabs
Green Aisles 1 Tabs
Its Real 1 Tabs
Kinder Blumen Tabs
Reservoir 3 1 Tabs
Green Aisles Ukulele
Its Real Ukulele
Pool Swimmers Ukulele


Song lyrics



↑ Back to top | Tablatures and chords are parodies/interpretations of the original songs. You may use it for private study, scholarship, research or language learning purposes only
© 2014 AZChords.com Contact us | Privacy policy | DMCA | Add/correct tabs | Request tabs | Top 50 tabs