» » »

Green Aisles Bass tabs (ver.1)

Artists:  A B C D E F G H I J K L M N O P Q R S T U V W X Y Z # 

Green Aisles Bass tabs (ver.1)

Real Estate
Rating:
5/5 (2 votes)

Tabs too difficult? Try these video lessons and learn fast.
                Green Aisles ~ Real Estate

Tuning: Standard

Intro/Breaks:
|-----5h7-----|
|-3-------7---|
|-----------5-|
|-------------|

Verse:
|-----5h7---------5h7---------5h7---------------------|
|-3-------7---3-------7---3-------7---5-5-5-5-5-5-5-5-|
|-----------5-----------5-----------5-----------------|
|-----------------------------------------------------|

Chorus:
|---------------------------------|
|-5-5-5-5-0-0-0-0-3-3-3-3-3-3-3-3-|
|---------------------------------|
|---------------------------------|

|---------------------------------|
|-5-5-5-5-0-0-0-0-3-3-3-3-3-3-3-3-|
|---------------------------------|
|---------------------------------|

|---------------------------------|
|-5-5-5-5-0-0-0-0-3-3-3-3-3-3-3-3-|
|---------------------------------|
|---------------------------------|

|---------------------------------|
|---------5-5-5-5-----------------|
|-3-3-3-3---------5-5-5-5-5-5-5-5-|
|---------------------------------|
            
Tabs too difficult? Try these video lessons and learn fast.


comments powered by Disqus
↑ Back to top | Tablatures and chords are parodies/interpretations of the original songs. You may use it for private study, scholarship, research or language learning purposes only