» » »

Razorback, Payaso Bass tabs (ver.2)

Artists:  A B C D E F G H I J K L M N O P Q R S T U V W X Y Z # 

Payaso Bass tabs (ver.2)

Razorback Tabs
Rating:
3/5 (2 votes)
Payaso lessons Tabs too difficult? Try these video lessons and learn fast
                Artist - Razorback
Song - Payaso

Legend
/ - Slide up
~ - Vibrato
b - bend
x - Mute
S - Slap
P - Pop

For Corrections, or you just want to give me something valueable, contact

Intro Riff

G|--------------------------------------------------------------|
D|------------5b6----5-7b9-5-7---------------5b6----------------|
A|-----5---7~-----7~-----------7-5----5-6-7~-----7~-5-----------|
E|--/7---7-------------------------/7-----------------5~-3~-5~--|

Verse Riff 1

G|------------------------|
D|------------------------|
A|--5h7-7-7-7--5h7-7-7-7--|
E|------------------------|

Verse Riff 2

G|-------------------|
D|--5h7-7-7---5h7----|
A|----------0-----0--|
E|-------------------|

Chorus Riff

G|-------------------------------|
D|------------------------5b6----|
A|--5-4-5h7---5-7-5-4-5h7-----7--|
E|----------7--------------------|

Chorus End Fill

G|-----------------------|
D|-----------------------|
A|--5-4-5h7---5-7-5-4----|
E|----------7---------5--|

Pre Solo Start Fill

G|----------|
D|----------|
A|-----5-6--|
E|--/7------|

Pre Solo Riff

G|-------------------------------------------------|
D|----------------5--------------------------------|
A|--5h7-7-7-7-5-----4-4h5---2h3-3-3-3-2------------|
E|--------------7-----------------------3-5-7-7h8--|

Bridge Part = Bridge Riff X 3 + Bridge Fill X 1 (NOTE: The album version was not
played in Pop Slap style, I only opted to because it sounds better)

Bridge Riff

    S S S  S   S P P S
G|---------------0-x------|
D|------------------------|
A|------7~-----------5h7--|
E|--3-0----6h7-x----------|

Bridge Fill

    S   S S S
G|-------------|
D|-------------|
A|-------------|
E|--5~--3-2-0--|

Order
Intro Riff X 2
Verse Riff 1 X 4
Verse Riff 2 X 4
Chorus Riff X 3
Chorus End Fill X 1
Intro Riff X 2
Verse Riff 1 X 4
Verse Riff 2 X 4
Chorus Riff X 3
Chorus End Fill X 1
Pre Solo Start Fill X 1
Pre Solo Riff X 4
Chorus Riff X 7
Chorus End Fill X 1
Bridge Part X 16
Intro Riff X 2
            
Submit corrections

comments powered by Disqus
↑ Back to top | Razorback Bass for Payaso. Lyrics for acoustic guitar and electric guitar. Tablatures and chords are parodies/interpretations of the original songs. You may use it for private study, scholarship, research or language learning purposes only