>
 >
Payaso 1

Payaso 1 Guitar Tabs

Razorback - Payaso 1 chords, tabs, tablatures, lyrics

Guitar lessons | Add/correct | Request | Top 50 tabs Artists:  A B C D E F G H I J K L M N O P Q R S T U V W X Y Z 0-9

Payaso 1 Guitar Tabs – Razorback

CD, Sheet music, Poster

Do you like Payaso 1? Share with your friends now
Bass TabsBass Tabs v2TabsTabs v2
Band/Artist:Razorback

Song Title:PAYASO



Yahoo id:steve_0_rules

thankx!

I'm not sure about this!

wala naman mawawala kung susubukan nyo dba!
But this is the close one!

hehehe!

Tablature legend
\ - slide
hb - half bend
db - downbend (v)
T - TAP

A:INTRO

|---------------------------------------------------------|--|-x-xx-|
|---------------------------------------------------------|--|-x-xx-|
|---------------------------------------------------------|x4|-x-xx-|
|-----------5---5hb7-5-7--------------5---5---------------|--|-x-xx-|4x
|-----5---7---7----------7-5----5-6-7---7-----------------|--|-x-xx-|
|-3\7---7---------------------7-------------db5--3-3\6--5-|--|-x-xx-|


|-5\7-777-x-7-x-xx-5\7-777-x-1010-x-9-9----|
|-7\9-999-x-9-x-xx-7\9-999-x-1212-x-1111---|
|-7\9-999-x-9-x-xx-7\9-999-x-1212-x-1111---|   x2
|-7\9-999-x-9-x-xx-7\9-999-x-1212-x-1111---|    
|-5\7-777-x-7-x-xx-5\7-777-x-1010-x-9-9----|
|------------------------------------------|

Verse 1

|-5\7-777-x-7-x-xx-5\7-777--101010-9-9-9---|
|-7\9-999-x-9-x-xx-7\9-999--121212-111111--|
|-7\9-999-x-9-x-xx-7\9-999--121212-111111--|   x2
|-7\9-999-x-9-x-xx-7\9-999--121212-111111--|    
|-5\7-777-x-7-x-xx-5\7-777--101010-9-9-9---|
|------------------------------------------|

 kilala nyo na ba ako,ang nangangamoy kong...

|----------xxxx-|
|-3\5-555--xxxx-|
|-5\7-777--xxxx-|
|-5\7-777--xxxx-| x4
|-5\7-777--xxxx-|
|-3\5-555--xxxx-|

dapat bang matuwa......

|-5-x-44-x-4\7-77--5-x-44-x-4\7--7-7-|
|-7-x-66-x-6\9-99--7-x-66-x-6\9--7-9-|
|-7-x-66-x-6\9-99--7-x-66-x-6\9--7-9-|  x3
|-7-x-66-x-6\9-99--7-x-66-x-6\9--5-9-|
|-5-x-44-x-4\7-77--5-x-44-x-4\7----7-|
|------------------------------------|

Sige lang ng sige hangga't mapanis...

|-5-x-44-x-4\7-77--5-4---|
|-7-x-66-x-6\9-99--7-6-5-|
|-7-x-66-x-6\9-99--7-6-7-|
|-7-x-66-x-6\9-99--7-6-7-|
|-5-x-44-x-4\7-77--5-4-7-|
|----------------------5-|

 Tatawanan nyo ba  Ang isang Payaso

|----------------------------------------------------------x-xx--|
|----------------------------------------------------------x-xx--|
|----------------------------------------------------------x-xx--|
|-----------5---5hb7-5-7--------------5---5----------------x-xx--| 2x
|-----5---7---7----------7-5----5-6-7---7------------------x-xx--|
|-3\7---7---------------------7-------------db5--3-3\6--5--x-xx--|

|-5\7-777-x-7-x-xx-5\7-777--101010-9-9-9---|
|-7\9-999-x-9-x-xx-7\9-999--121212-111111--|
|-7\9-999-x-9-x-xx-7\9-999--121212-111111--|   x2
|-7\9-999-x-9-x-xx-7\9-999--121212-111111--|    
|-5\7-777-x-7-x-xx-5\7-777--101010-9-9-9---|
|------------------------------------------|

Verse 2

|-5\7-777-x-7-x-xx-5\7-777-x-1010-x-9-9-9---|
|-7\9-999-x-9-x-xx-7\9-999-x-1212-x-111111--|
|-7\9-999-x-9-x-xx-7\9-999-x-1212-x-111111--|   x2
|-7\9-999-x-9-x-xx-7\9-999-x-1212-x-111111--|    
|-5\7-777-x-7-x-xx-5\7-777-x-1010-x-9-9-9---|
|-------------------------------------------|

di naman maangas Hindi rin totoo

|----------xxxx-|
|-3\5-555--xxxx-|
|-5\7-777--xxxx-|
|-5\7-777--xxxx-| x4
|-5\7-777--xxxx-|
|-3\5-555--xxxx-|

Kapag may maskara ang tao
Marami siyang matatago

-5-x-44-x-4\7-77--5-x-44-x-4\7--7-7--|
|-7-x-66-x-6\9-99--7-x-66-x-6\9--7-9-|
|-7-x-66-x-6\9-99--7-x-66-x-6\9--7-9-|  x3
|-7-x-66-x-6\9-99--7-x-66-x-6\9--5-9-|
|-5-x-44-x-4\7-77--5-x-44-x-4\7----7-|
|------------------------------------|

Trabaho niya'y tumawa Pero gusto ring umiyak....

|-5-x-44-x-4\7-77--5-4---|
|-7-x-66-x-6\9-99--7-6-5-|
|-7-x-66-x-6\9-99--7-6-7-|
|-7-x-66-x-6\9-99--7-6-7-|
|-5-x-44-x-4\7-77--5-4-7-|
|----------------------5-|
Tatawanan n'yo ba  Ang isang tulad ko

|------------------------------------------------|
|------------------------------------------------|
|------------------------------------------------|
|--------------------5---------------------------|
|-----5---777--5T6T7---5-4T5-------------5-------|
|-3\7---7----------------------777-5T6T7---7-6T7-|


|--------------------------------------|
|--------------------------------------|
|--------------------------------------|
|------------5-------------------------|  Pakinggan nyo n lng kung
|-777--5T6T7---5-4T5-----------5-------|  ilang beses gagawin 2!!hehe!
|--------------------777-5T6T7---7-6T7-|

then:

|-5-x-44-x-4\7-77--5-x-44-x-4\7--7-7-|
|-7-x-66-x-6\9-99--7-x-66-x-6\9--7-9-|
|-7-x-66-x-6\9-99--7-x-66-x-6\9--7-9-|     (listen 4 the struming)
|-7-x-66-x-6\9-99--7-x-66-x-6\9--5-9-|     Bahala na kau kung ilang beses din 
|-5-x-44-x-4\7-77--5-x-44-x-4\7----7-|     hehehe!!
|------------------------------------|

|-5-x-44-x-4\7-77--5-4----|
|-7-x-66-x-6\9-99--7-6-5--|
|-7-x-66-x-6\9-99--7-6-7--|
|-7-x-66-x-6\9-99--7-6-7--|
|-5-x-44-x-4\7-77--5-4-7--|
|----------------------5--|

|--------|
|--------|
|--------|
|-----2--|
|-----2--|
|-3-2-0--|

Verse 3

|---------------------------------------------------|
|---------------------------------------------------|
|---------------------------------------------------|
|-----------------------------------------------2---| x2-listen 4 the timing
|-------5------------5------------5-------------2---|
|-5T6T7---7650-5T6T7---7650-5T6T7-----------3-0-0---|

Hindi na baguhan...

|----------------------------------------------|
|----------------------------------------------|
|----------------------------------------------|
|-------------------------------------7------2-|  
|-------5------------5------------5---7------2-|
|-5T6T7---7650-5T6T7---7650-5T6T7---0-5--3-2-0-|

|---------------------------------------------------|
|---------------------------------------------------|
|---------------------------------------------------|
|-----------------------------------------------2---| x2-listen 4 the timing
|-------5------------5------------5-------------2---|
|-5T6T7---7650-5T6T7---7650-5T6T7-----------3-0-0---|

|----------------------------------------------|
|----------------------------------------------|
|----------------------------------------------|
|-------------------------------------7------2-|  
|-------5------------5------------5---7------2-|
|-5T6T7---7650-5T6T7---7650-5T6T7---0-5--3-2-0-|

Outro:


|------------------------------------------------------------|
|------------------------------------------------------------|
|------------------------------------------------------------|
|-----------5---5hb7-5-7--------------5---5------------------| 4x
|-----5---7---7----------7-5----5-6-7---7--------------------|
|-3\7---7---------------------7-------------db5--3-3\6--5----|

|----|
|----|
|----|
|-5--|
|-5--|
|-5--|

Tablature Legend
----------------
 h   - hammer-on
 p   - pull-off
 b   - bend
 pb  - pre-bend
 r   - bend release (if no number after the r, then release immediately)
 /\  - slide into or out of (from/to "nowhere")
 s   - legato slide
 S   - shift slide
  - natural harmonic
[n]  - artificial harmonic
n(n) - tapped harmonic
 ~   - vibrato
 tr  - trill
 T   - tap
 TP  - trem. picking
 PM  - palm muting
\n/  - tremolo bar dip; n = amount to dip
 \n  - tremolo bar down
 n/  - tremolo bar up
/n\  - tremolo bar inverted dip
 =   - hold bend; also acts as connecting device for hammers/pulls
 <>  - volume swell (louder/softer)
 x   - on rhythm slash represents muted slash
 o   - on rhythm slash represents single note slash

Misc Legend
-----------
 |  - bar
||  - double bar
||o - repeat start
o|| - repeat end
*|  - double bar (ending)
 :  - bar (freetime)
 $  - Segno
 &  - Coda
Tempo markers -  = BPM(8/16=s8/s16), where s8 = swing 8ths, s16 = swing 16ths





Comments


Popular Razorback tabs & chords
Payaso 1 Bass Tabs
Giyang 1 Tabs
Ikot Ng Mundo Tabs
Munting Paraiso Tabs
My Banio Song Intro Tabs
Payaso Tabs
Summa Cum Laude Tabs
Tikmanangulan Tabs
Wakasan Tabs
Wakasan 1 Tabs


Song lyrics



↑ Back to top | Tablatures and chords are parodies/interpretations of the original songs. You may use it for private study, scholarship, research or language learning purposes only
© 2014 AZChords.com Contact us | Privacy policy | DMCA | Add/correct tabs | Request tabs | Top 50 tabs