» » »

Razorback, Payaso Bass tabs (ver.1)

Artists:  A B C D E F G H I J K L M N O P Q R S T U V W X Y Z # 

Payaso Bass tabs (ver.1)

Razorback Tabs
Rating:
3/5 (1 vote)
Payaso lessons Tabs too difficult? Try these video lessons and learn fast
                **Payaso Bass Tab**

Tuning: Standard

Legend(s) used:
~- Ring
/- Slide up
s- Slap
p- Pop

Intro: (Guitar will do this intro 2 times after the guitar's 2 times, the bass will 
and do this intro 2 times also).
G|------------------------------------------|
D|--------5-5-7-5-7-5-------5---------------| (2x)
A|----5-7--7---------7-5-5-7-7-5------------|
E|--5-7-----------------6-------7----3-5~---|

Verse:
G|------------------------------------------|
D|------------------------------------------| (7x)
A|-5/7-77-5-7-5/7-777/10-9------------------|
E|------------------------------------------|

Pre-Chorus and Chorus:
G|------------------------------------------|
D|------------------------------------------| (4x)
A|-------45-----7-5-------------------------|
E|--7-5-7--7-5-7----------------------------|

Do this part at: isang Payaso (Pakinggan nyu mabuti tung part n to).
G|------------|
D|------------|
A|------------|
E|--5-3-0-----|

Then Do "INTRO" part:
G|------------------------------------------|
D|--------5-5-7-5-7-5-------5---------------| (2x)
A|----5-7--7---------7-5-5-7-7-5------------|
E|--5-7-----------------6-------7----3-5~---|

After that Do "VERSE" part again:
G|------------------------------------------|
D|------------------------------------------| (7x)
A|-5/7-77-5-7-5/7-777/10-9------------------|
E|------------------------------------------|

And then Do the "PRE-CHORUS part again:
G|------------------------------------------|
D|------------------------------------------| (4x)
A|-------45-----7-5-------------------------|
E|--7-5-7--7-5-7----------------------------|

Do this part at: isang katulad ko (Pakinggan nyu ule ng mabuti eto).
G|------------|
D|------------|
A|------------|
E|--5-3-0-----|

Before Guitar Solo part1:(Pwde nyu rin gawin to na "BASS SLAP and POP" qng gsto nyu lng, 
qng ga2win nyu to, dpt mabilis ung slap and pop nyu dtu).

             pp
G|-------------------------------------------|
D|-------------------------------------------| (4x)
A|------------45-----------------------------|
E|--7-5-7-5-7---7-5-7-5-7-45-----------------|
    s p s p s   s p s p s pp

While Guitar Solo; Do this part:
         pp
G|------------------------------------------|
D|------------------------------------------| (8x)
A|-------45-----7-5-------------------------|
E|--7-5-7--7-5-7----------------------------|
    s s s  s s s p p

Then do this part:
G|------------|
D|------------|
A|------------|
E|--5-3-0-----|

Verse3: (Before Guitar Solo part2)
G|-------------------------------------------|
D|-------------------------------------------| (7x)
A|-------------------------------------------|
E|055-7-5-7-55-7-5-7-55-7-5-7-55-3-0---------|

While Guitar Solo Part2: Do this part:
G|-------------------------------------------|
D|-------------------------------------------| (5x)
A|-------------------------------------------|
E|055-7-5-7-55-7-5-7-55-7-5-7-55-3-0---------|

Verse4: (After Guitar Solo part2)
G|-------------------------------------------|
D|-------------------------------------------| (2x)
A|-------------------------------------------|
E|055-7-5-7-55-7-5-7-55-7-5-7-55-3-0---------|

Outro: (Ending Part) Bass will end this part 2 times only, while Guitar will do end this 
4 times. Clear?
G|------------------------------------------|
D|--------5-5-7-5-7-5-------5---------------| (2x)
A|----5-7--7---------7-5-5-7-7-5------------|
E|--5-7-----------------6-------7----3-5~---|

End...

Pakinggan niyo etong Song para Makapa at Magawa niyo mabuti etong Tab na ginawa ko.
            
Submit corrections

comments powered by Disqus
↑ Back to top | Razorback Bass for Payaso. Lyrics for acoustic guitar and electric guitar. Tablatures and chords are parodies/interpretations of the original songs. You may use it for private study, scholarship, research or language learning purposes only