>
 >
Wildcat 1

Wildcat 1 Bass Tabs

Ratatat - Wildcat 1 chords, tabs, tablatures, lyrics

Guitar lessons | Add/correct | Request | Top 50 tabs Artists:  A B C D E F G H I J K L M N O P Q R S T U V W X Y Z 0-9

Wildcat 1 Bass Tabs – Ratatat

CD, Sheet music, Poster

Do you like Wildcat 1? Share with your friends now
Bass TabsBass Tabs v2TabsTabs v2Tabs v3
Hi! This song is really fun to play - it's funky and you can get really creative with it 
if you want. The ghost notes here aren't necessary, but really the change-up of 
staccato and legato is what makes this bassline awesome.


0:17
G|-------------------------------------|
D|------------------------------11-----|
A|-8--8--6h8p6------6--6--6-x------x---|
E|-------------8--8-----------9------9-|

G|-------x---------------x-------------|
D|--------x----x----------x------------|
A|-8--8----6h8---6/8--8----8/11-x-11---|
E|-------------------------------------|

1:56
G|------------------------------------------------------------------|
D|------------------------------------------------------------------|
A|--------------------6h8-8-x8--6h8--66-6-x6--6-x4h6----------------|
E|-6-6666--6-66666h8----------------------------------11-1-x1--1-x1-|

2:29
G|-------------------------------------|
D|-------------------88-8-x8--88-8-x8--|
A|-66-6-x6--99-9-x9--------------------|
E|-------------------------------------|





Comments


Popular Ratatat tabs & chords
Im Really Hot Bass Tabs
Kennedy Bass Tabs
Breaking Away 1 Tabs
El Pico Tabs
Lex Tabs
Party And Bullshit Intro Tabs
Seventeen Years 1 Tabs
Tacobel Canon Tabs
Wildcat Tabs
Wildcat Intro Tabs


Song lyrics



↑ Back to top | Tablatures and chords are parodies/interpretations of the original songs. You may use it for private study, scholarship, research or language learning purposes only
© 2014 AZChords.com Contact us | Privacy policy | DMCA | Add/correct tabs | Request tabs | Top 50 tabs