>
 >
Wildcat 1

Wildcat 1 Guitar Tabs

Ratatat - Wildcat 1 chords, tabs, tablatures, lyrics

Guitar lessons | Add/correct | Request | Top 50 tabs Artists:  A B C D E F G H I J K L M N O P Q R S T U V W X Y Z 0-9

Wildcat 1 Guitar Tabs – Ratatat

CD, Sheet music, Poster

Do you like Wildcat 1? Share with your friends now
Bass TabsBass Tabs v2TabsTabs v2Tabs v3
Listened and listened to the best of my ability, play away!



Intro
e|-----13-13--------------13--------------------------------------------|
B|----------------------------------------------------------------------|
G|----------------------------------------------------------------------| x8
D|----------------------------------------------------------------------|
A|----------------------------------------------------------------------|
E|----------------------------------------------------------------------|

e|-----13-13-13/8---------13-----------------13-13-----------13---------|
B|----------------------------------------------------------------------|
G|----------------------------------------------------------------------| x10
D|----------------------------------------------------------------------|
A|----------------------------------------------------------------------|
E|----------------------------------------------------------------------|

1st sequence
e|-------------------------------------------------------------------------|
B|---16-14-13-14----13----13----------------14----13----13----13-----------|
G|---------------15----15----15/13-12-15-13----15----13----12----10/13-----|
D|-------------------------------------------------------------------------|
A|-------------------------------------------------------------------------|
E|-------------------------------------------------------------------------|

e|-------------------------------------------------------------------------|
B|----14-13-14----13----13----------------------13----13-------------------|
G|-------------15----15----15/13-12-15-13-12-13----12----10----------------|
D|-------------------------------------------------------------------------|
A|-------------------------------------------------------------------------|
E|-------------------------------------------------------------------------|

e|---15-13-11-13-----------------------------------------------------------|
B|---------------14-16-14-16/14-13----13-12-------13----13----13-----------|
G|---------------------------------15-------15-15----13----12----10-13-----|
D|-------------------------------------------------------------------------|
A|-------------------------------------------------------------------------|
E|-------------------------------------------------------------------------|

e|-------------------------------------------------------------------------|
B|----14-13-14----13----13----------------------13----13-------------------|
G|-------------15----15----15/13-12-15-13-12-13----12----10----------------|
D|-------------------------------------------------------------------------|
A|-------------------------------------------------------------------------|
E|-------------------------------------------------------------------------|



2nd sequence
e|-------------------------------------------------------------------------|
B|-------------------------------------------------------------------------|
G|--5/66-6-5/6-6-6-----3/5-5-5-3/5-5-5----------------------------------| x2
D|-------------------------------------------------------------------------|
A|-------------------------------------------------------------------------|
E|-------------------------------------------------------------------------|

e|-------------------------------------------------------------------------|
B|-------------------------------------------------------------------------|
G|--5/66-6-5/6-6-6-----6/10-10-10-6/10-10-10----------------------------|
D|-------------------------------------------------------------------------|
A|-------------------------------------------------------------------------|
E|-------------------------------------------------------------------------|

e|-------------------------------------------------------------------------|
B|-------------------------------------------------------------------------|
G|--5/66-6-5/6-6-6-----3/5-5-5-3/5-5-5----------------------------------|
D|-------------------------------------------------------------------------|
A|-------------------------------------------------------------------------|
E|-------------------------------------------------------------------------|



Final sequence
e|----------------------------------------------------------|
B|----------------------------------------------------------|
G|-15----15-17-18-17-15-17----13-15-------------------------|
D|----15-------------------15-------15-13-10-11-13-15-11-15-|
A|----------------------------------------------------------|
E|----------------------------------------------------------|

e|---------------------|
B|---------------------|
G|-13----13-15---------|x4
D|----15-------15-14-10|
A|---------------------|
E|---------------------|


Skip the last the two notes on the 4th time, as the song ends

Good luck!





Comments


Popular Ratatat tabs & chords
Im Really Hot Bass Tabs
Wildcat 1 Bass Tabs
Cherry Tabs
Mi Viejo Tabs
Montanita 1 Tabs
Seventeen Years 1 Tabs
Sunblocks Tabs
Tacobel Canon Tabs
Two Tabs
Wildcat Intro Tabs


Song lyrics



↑ Back to top | Tablatures and chords are parodies/interpretations of the original songs. You may use it for private study, scholarship, research or language learning purposes only
© 2014 AZChords.com Contact us | Privacy policy | DMCA | Add/correct tabs | Request tabs | Top 50 tabs