» » »

Ratatat, Wildcat Tabs (ver.3)

Artists:  A B C D E F G H I J K L M N O P Q R S T U V W X Y Z # 

Wildcat Tabs (ver.3)

Ratatat Tabs
 Rating:
4/5 (4 votes)
Wildcat lessons Tabs too difficult? Try these video lessons and learn fast
1
                Listened and listened to the best of my ability, play away!



Intro
e|-----13-13--------------13--------------------------------------------|
B|----------------------------------------------------------------------|
G|----------------------------------------------------------------------| x8
D|----------------------------------------------------------------------|
A|----------------------------------------------------------------------|
E|----------------------------------------------------------------------|

e|-----13-13-13/8---------13-----------------13-13-----------13---------|
B|----------------------------------------------------------------------|
G|----------------------------------------------------------------------| x10
D|----------------------------------------------------------------------|
A|----------------------------------------------------------------------|
E|----------------------------------------------------------------------|

1st sequence
e|-------------------------------------------------------------------------|
B|---16-14-13-14----13----13----------------14----13----13----13-----------|
G|---------------15----15----15/13-12-15-13----15----13----12----10/13-----|
D|-------------------------------------------------------------------------|
A|-------------------------------------------------------------------------|
E|-------------------------------------------------------------------------|

e|-------------------------------------------------------------------------|
B|----14-13-14----13----13----------------------13----13-------------------|
G|-------------15----15----15/13-12-15-13-12-13----12----10----------------|
D|-------------------------------------------------------------------------|
A|-------------------------------------------------------------------------|
E|-------------------------------------------------------------------------|

e|---15-13-11-13-----------------------------------------------------------|
B|---------------14-16-14-16/14-13----13-12-------13----13----13-----------|
G|---------------------------------15-------15-15----13----12----10-13-----|
D|-------------------------------------------------------------------------|
A|-------------------------------------------------------------------------|
E|-------------------------------------------------------------------------|

e|-------------------------------------------------------------------------|
B|----14-13-14----13----13----------------------13----13-------------------|
G|-------------15----15----15/13-12-15-13-12-13----12----10----------------|
D|-------------------------------------------------------------------------|
A|-------------------------------------------------------------------------|
E|-------------------------------------------------------------------------|



2nd sequence
e|-------------------------------------------------------------------------|
B|-------------------------------------------------------------------------|
G|--5/6—6-6—-5/6-6-6-----3/5-5-5—-3/5-5-5----------------------------------| x2
D|-------------------------------------------------------------------------|
A|-------------------------------------------------------------------------|
E|-------------------------------------------------------------------------|

e|-------------------------------------------------------------------------|
B|-------------------------------------------------------------------------|
G|--5/6—6-6—-5/6-6-6-----6/10-10-10—-6/10-10-10----------------------------|
D|-------------------------------------------------------------------------|
A|-------------------------------------------------------------------------|
E|-------------------------------------------------------------------------|

e|-------------------------------------------------------------------------|
B|-------------------------------------------------------------------------|
G|--5/6—6-6—-5/6-6-6-----3/5-5-5—-3/5-5-5----------------------------------|
D|-------------------------------------------------------------------------|
A|-------------------------------------------------------------------------|
E|-------------------------------------------------------------------------|



Final sequence
e|----------------------------------------------------------|
B|----------------------------------------------------------|
G|-15----15-17-18-17-15-17----13-15-------------------------|
D|----15-------------------15-------15-13-10-11-13-15-11-15-|
A|----------------------------------------------------------|
E|----------------------------------------------------------|

e|---------------------|
B|---------------------|
G|-13----13-15---------|x4
D|----15-------15-14-10|
A|---------------------|
E|---------------------|


Skip the last the two notes on the 4th time, as the song ends

Good luck!
            
Submit corrections

comments powered by Disqus
↑ Back to top | Ratatat Tabs for Wildcat. Lyrics for acoustic guitar and electric guitar. 1 Tablatures and chords are parodies/interpretations of the original songs. You may use it for private study, scholarship, research or language learning purposes only