» » »

Ratatat, Shiller Tabs (ver.2)

Artists:  A B C D E F G H I J K L M N O P Q R S T U V W X Y Z # 

Shiller Tabs (ver.2)

Ratatat Tabs
 Rating:
4.2/5 (5 votes)
Shiller lessons Tabs too difficult? Try these video lessons and learn fast
1
                RATATAT's Shiller off of LP3



INTRO/VERSE:

6X
(0:22)


e---9-8-------------------------------------------------|
B--------11--9--11--------------------------------------|
G-------------------10----------------------------------|
D-------------------------------------------------------|
A-------------------------------------------------------|
E-------------------------------------------------------|

e---9-8------------------------------------------------|
B--------11--9--11------------------------10-10-11-----|
G-------------------10---10-11-8-13(11)10---10---------|
D------------------------------------------------------|
A------------------------------------------------------|
E------------------------------------------------------|

e---9-8-------------------------------------------------|
B--------11--9--11--------------------------------------|
G-------------------10----------------------------------|
D-------------------------------------------------------|
A-------------------------------------------------------|
E-------------------------------------------------------|



CHORUS:

It’s the same riff twice, but they switch the ending bit. 
(2:24) (repeat until the end)

e-------------------------------------------------------|
B-------------------------------------------------------|
G-----------15-------------10-10----------11-10-8-------|
D-11-10-11----8--11-10-11-------13-11-13---------8--11--|
A-------------------------------------------------------|
E-------------------------------------------------------|

e-------------------------------------------------------|
B-------------------------------------------------------|
G-----------15-------------10-10----------11-10-8-------|
D-11-10-11----8--11-10-11-------13-11-13----------------|
A-------------------------------------------------------|
E-------------------------------------------------------|

e-------------------------------------------------------|
B-------------------------------------------------------|
G-------------------------------------------------------|
D--8-10-11--10-11-13------------------------------------|
A-------------------------------------------------------|
E-------------------------------------------------------|
            
Submit corrections

comments powered by Disqus
↑ Back to top | Ratatat Tabs for Shiller. Lyrics for acoustic guitar and electric guitar. 1 Tablatures and chords are parodies/interpretations of the original songs. You may use it for private study, scholarship, research or language learning purposes only