» » »

Shiller Tabs (ver.1)

Artists:  A B C D E F G H I J K L M N O P Q R S T U V W X Y Z # 

Shiller Tabs (ver.1)

Ratatat
Rating:
5/5 (2 votes)

Hard to play? Try these video lessons and learn fast.
                -------------------------------------------------------------------------------
-------------------------------------------------------------------------------

Tuning: standard, EADGBe



main riff:

e|----9---8---6-------6------------9---8---6-------6-------------------------|
B|----------------9-------6--------------------9-------6---------------------|
G|---------------------------------------------------------------------------|
D|---------------------------------------------------------------------------|
A|---------------------------------------------------------------------------|
E|---------------------------------------------------------------------------|

e|----------------------------5-------5---6----------------------------------|
B|----6---7-------9-------6-------6------------------------------------------|
G|------------8-------8------------------------------------------------------|
D|---------------------------------------------------------------------------|
A|---------------------------------------------------------------------------|
E|---------------------------------------------------------------------------|


second part solo riff

e|---------------------------------------------------------------------------|
B|---------------------------------------------------------------------------|
G|-------------10------------------10---10---8--------8---11---10---8--------|
D|--11p10h11--------8---11p10h11-----------------11--------------------------|
A|---------------------------------------------------------------------------|
E|---------------------------------------------------------------------------|

e|---------------------------------------------------------------------------|
B|---------------------------------------------------------------------------|
G|----------------8----------------------------------------------------------|
D|8h10h11---10h11------------------------------------------------------------|
A|---------------------------------------------------------------------------|
E|---------------------------------------------------------------------------|


e|---------------------------------------------------------------------------|
B|---------------------------------------------------------------------------|
G|-------------10------------------10---10---8--------8---11---10---8--------|
D|--11p10h11--------8---11p10h11-----------------11--------------------8---11|
A|---------------------------------------------------------------------------|
E|---------------------------------------------------------------------------|

repeat until the song is done


| /  slide up
| \  slide down
| h  hammer-on
| p  pull-off
| ~  vibrato
| +  harmonic
| x  Mute note
===============================================================================
            
Hard to play? Try these video lessons and learn fast. | Correct




comments powered by Disqus
↑ Back to top | Tablatures and chords are parodies/interpretations of the original songs. You may use it for private study, scholarship, research or language learning purposes only