» » »

Nostrand Bass tabs (ver.2)

Artists:  A B C D E F G H I J K L M N O P Q R S T U V W X Y Z # 

Nostrand Bass tabs (ver.2)

Ratatat
Rating:
0/5 (0 votes)

Hard to play? Try these video lessons and learn fast.
                (Intro)
Ratatat:  Nostrand (bass)

This is just the repeating opening part, which goes until about 1:40
Also, this is all on the E and the A (yes you can do it differently if you want).


Let me know if there are any problems, there were no bass tabs up for this so I figured
give it a shot


---------------3----------3----------------------|
-3--3--3--1-------3--3-3-----3--3--1--3----------|
-------------------------------------------------|
-------------------------------------------------|

-------------8--6---------6-----------------------|
--6--6--6---------6--6-6------6--6--8--8----------|
--------------------------------------------------|
--------------------------------------------------|


----------------3----------3------------1--1--1--3--3--1--3--3------------|
--3--3--3--1------3--3--3------3-3--1-----------------------------1-------|
--------------------------------------------------------------------------|
--------------------------------------------------------------------------|
            
Hard to play? Try these video lessons and learn fast. | Correct




comments powered by Disqus
↑ Back to top | Tablatures and chords are parodies/interpretations of the original songs. You may use it for private study, scholarship, research or language learning purposes only