» » »

Ratatat, Nostrand Bass tabs (ver.1)

Artists:  A B C D E F G H I J K L M N O P Q R S T U V W X Y Z # 

Nostrand Bass tabs (ver.1)

Ratatat Tabs
 Rating:
4/5 (4 votes)
Nostrand lessons Tabs too difficult? Try these video lessons and learn fast
                G|---------------------------------------------------------------------------|
D|----------------------1---1-3----------------------------------------------|
A|--3--3--3-3-1-3-3---3---3--------------------------------------------------|
E|---------------------------------------------------------------------------|

G|---------------------------------------------------------------------------|
D|-----------------------------3---------------------------------------------|
A|---6--6--6-6-3-6-6--3-6-3-6------------------------------------------------|
E|---------------------------------------------------------------------------|

G|---------------------------------------------------------------------------|
D|----------------------1---1------------------------------------------------|
A|---3--3--3-3-1-3-3--3---3---1----------------------------------------------|
E|---------------------------------------------------------------------------|

G|---------------------------------------------------------------------------|
D|---------------------------------------------------------------------------|
A|-------------------------1-------------------------------------------------|
E|---1-1--1-1--3-3-1-3-1-3---------------------------------------------------|


| /  slide up
| \  slide down
| h  hammer-on
| p  pull-off
| ~  vibrato
| +  harmonic
| x  Mute note
===============================================================================
            
Submit corrections

comments powered by Disqus
↑ Back to top | Ratatat Bass for Nostrand. Lyrics for acoustic guitar and electric guitar. Tablatures and chords are parodies/interpretations of the original songs. You may use it for private study, scholarship, research or language learning purposes only