» » »

Ratatat, Montanita Tabs (ver.1)

Artists:  A B C D E F G H I J K L M N O P Q R S T U V W X Y Z # 

Montanita Tabs (ver.1)

Ratatat Tabs
 Rating:
3.3/5 (6 votes)
Montanita lessons Tabs too difficult? Try these video lessons and learn fast
                Your gonna need a slide for this part!!

E-------------------------   18/17/13-------------15|
B------------------8---15--18/17/13-15-15/16--16----|
G----12/7--7/8--8--8---15-----------15-15-----------|
D----12/7--7/8--8-----------------------------------|
A---------------------------------------------------|
E---------------------------------------------------|

pick this part


E-------8-----8----8---8---8-8-----[--6---6---6---6-6-6-|   repeat the [] part twice
B----10----10---10---10---10-10---[-8---8---8---8---8-8-|
G--10---10---10---10------10-10--[8---8---8---8-----8-8-|
D-------------------------------------------------------|
A-------------------------------------------------------|
E-------------------------------------------------------|


cont.

E-------3----3----3----3---3-3-|
B-----5----5----5----5-----5-5-|
G---5----5----5----5-------5-5-|   repeat
D------------------------------|
A------------------------------|
E------------------------------|
            
Submit corrections

comments powered by Disqus
↑ Back to top | Ratatat Tabs for Montanita. Lyrics for acoustic guitar and electric guitar. Tablatures and chords are parodies/interpretations of the original songs. You may use it for private study, scholarship, research or language learning purposes only