>
 >
Montanita 1

Montanita 1 Guitar Tabs

Ratatat - Montanita 1 chords, tabs, tablatures, lyrics

Guitar lessons | Add/correct | Request | Top 50 tabs Artists:  A B C D E F G H I J K L M N O P Q R S T U V W X Y Z 0-9

Montanita 1 Guitar Tabs – Ratatat

CD, Sheet music, Poster

Do you like Montanita 1? Share with your friends now
TabsTabs v2Tabs v3

MONTANITA
As recorded by Ratatat
(From the 2006 Album CLASSICS)

Converted to text by myamoebafriend (Don't hate me Danny, just trying to spread your tab!)
        

Music by Ratatat

Gtr I (E A D G B E) - 'Untitled'
Gtr II (E A D G B E) - 'Untitled'
Gtr III (E A D G B E) - 'Untitled'
Gtr IV (E A D G B E) - 'Untitled'
Gtr V (E A D G B E) - 'Untitled'

    Q=124
   4/4
    Gtrs I, IV
     Q.     E  Q.     E     Q.     E   Q.     E
||--------/18-18----(17)-|-17--------------------|
||o-15----/20-20----(18)-|-18----(16)-16----(13)-|
||--15-------------------|-------(17)-17----(12)-|
||-----------------------|-----------------------|
||o----------------------|-----------------------|
||-----------------------|-----------------------|
|
|   Gtr II
|    H         H            H          H
||------------18---------|-17--------------------|
||o-15-------------------|------------16---------|
||------------15---------|-14--------------------|
||--12-------------------|------------13---------|
||o----------------------|-----------------------|
||-----------------------|-----------------------|
|
|   Gtr III
|    W                      W
||-----------------------|-----------------------|
||o----------------------|-----------------------|
||-----------------------|-----------------------|
||-----------------------|-----------------------|
||o----------------------|-----------------------|
||-----------------------|-----------------------|


   H.       E  E    Q.     E   H
|----------------|----------------------|
|-13-------13S16-|-16\------------------|
|-12-------12S17-|-17\---(12)-12--------|
|----------------|-------(13)-13--------|
|----------------|----------------------|
|----------------|----------------------|
|
|  W                H          H
|----------------|----------------------|
|-13-------------|-16-------------------|
|----------------|------------12--------|
|-10-------------|-13-------------------|
|----------------|------------10--------|
|----------------|----------------------|
|
|  W                H.             Q
|----------------|----------------------|
|----------------|----------------11\---|
|----------------|----------------12\---|
|----------------|----------------13\---|
|----------------|----------------------|
|----------------|----------------------|


   Q.     E   H       Q.     E   H
|------------------|------------------|
|-11/---(15)-15----|--8/---(11)-11----|
|-12/---(15)-15----|--8/---(12)-12----|
|------------------|------------------|
|------------------|------------------|
|------------------|------------------|
|
|  H          H       H          H
|------------------|------------------|
|------------15----|------------11----|
|-15---------------|-12---------------|
|------------12----|-------------8----|
|-13---------------|-10---------------|
|------------------|------------------|
|
|  <                  <
|  W                  W
|------------------|------------------|
|-(6)--------------|------------------|
|--7---------------|------------------|
|--8---------------|--8---------------|
|--8---------------|-10---------------|
|------------------|-11---------------|


  1.,2.,3.
   Q.     E  Q.     E     Q.     E   Q.     E
|-------/18-18----(17)-|-17--------------------|
|-15----/20-20----(18)-|-18----(16)-16----(13)-|
|-15-------------------|-------(17)-17----(12)-|
|----------------------|-----------------------|
|----------------------|-----------------------|
|----------------------|-----------------------|
|
|  H         H            H          H
|-----------18---------|-17--------------------|
|-15-------------------|------------16---------|
|-----------15---------|-14--------------------|
|-12-------------------|------------13---------|
|----------------------|-----------------------|
|----------------------|-----------------------|
|
|  W                      W
|----------------------|-----------------------|
|----------------------|-----------------------|
|----------------------|-----------------------|
|----------------------|-----------------------|
|----------------------|-----------------------|
|----------------------|-----------------------|


   H.       E  E    Q.     E   H
|----------------|----------------------|
|-13-------13S16-|-16/---(20)-20--------|
|-12-------12S17-|-17/---(20)-20--------|
|----------------|----------------------|
|----------------|----------------------|
|----------------|----------------------|
|
|  W                H          H
|----------------|----------------------|
|-13-------------|-16---------20--------|
|----------------|----------------------|
|-10-------------|-13---------17--------|
|----------------|----------------------|
|----------------|----------------------|
|
|  W                H.             Q
|----------------|----------------------|
|----------------|----------------11\---|
|----------------|----------------12\---|
|----------------|----------------13\---|
|----------------|----------------------|
|----------------|----------------------|


   Q.     E   H       Q.     E   H     4x
|------------------|-------------------||
|-11/---(15)-15----|--8/---(11)-11----o||
|-12/---(15)-15----|--8/---(12)-12-----||
|------------------|-------------------||
|------------------|------------------o||
|------------------|-------------------||
|
|  H          H       H          H     4x
|------------------|-------------------||
|------------15----|------------11----o||
|-15---------------|-12----------------||
|------------12----|-------------8-----||
|-13---------------|-10---------------o||
|------------------|-------------------||
|
|  <                  <
|  W                  W                4x
|------------------|-------------------||
|-(6)--------------|------------------o||
|--7---------------|-------------------||
|--8---------------|--8----------------||
|--8---------------|-10---------------o||
|------------------|-11----------------||


  4.
  Gtr II
   Q  E  Q  E  Q    E  Q  E  q   q     Q  E  Q  E  Q    E  Q  E  q   q
|-----------------|-----------------|-----------------|------------------|
|-------13----13--|---13----16--16--|-15----15----15--|---15-------------|
|-14----14----14--|---14----17--17--|-15----15----15--|---15----10--10---|
|-15----15----15--|---15----17--17--|-17----17----17--|---17----12--12---|
|-17--------------|-----------------|-----------------|---------13--13---|
|-----------------|-----------------|-----------------|------------------|


   Q  E  Q  E  Q    E  Q  E q  q     Q  E  Q  E  Q    E  Q  E  q   q
|-----------------|---------------|-----------------|------------------|
|-11----11----11--|---11----6--6--|-----------------|---------11--11---|
|-12----12----12--|---12----7--7--|-12----12----12--|---12----12--12---|
|-13----13----13--|---13----8--8--|-13----13----13--|---13----13--13---|
|-----------------|---------------|-15----15----15--|---15-------------|
|-----------------|---------------|-----------------|------------------|


  Gtr IV
   E  E E  E  E E  E  E   E  E  E E  E E  Q
|-------8-------8-------|-8-------8----------|
|----10------10------10-|------10---------8--|
|-10------10------10----|---10---------8-----|
|-----------------------|-----------10-------|
|-----------------------|--------------------|
|-----------------------|--------------------|
|
| Gtr II
|  Q    E  Q    E  Q      E  Q    E  q    q
|-----------------------|--------------------|
|---------13------13----|---13------16---16--|
|-14------14------14----|---14------17---17--|
|-15------15------15----|---15------17---17--|
|-17--------------------|--------------------|
|-----------------------|--------------------|


   E E E  E E E  E E   E  E E E  E E  Q
|------6------6------|-6------6-------6---|
|----8------8------8-|------8-------------|
|--7------7------7---|----7--------7------|
|--------------------|-----------8--------|
|--------------------|--------------------|
|--------------------|--------------------|
|
|  Q   E  Q   E  Q     E  Q   E  q    q
|--------------------|--------------------|
|-15-----15-----15---|---15---------------|
|-15-----15-----15---|---15-----10---10---|
|-17-----17-----17---|---17-----12---12---|
|--------------------|----------13---13---|
|--------------------|--------------------|


   E E E  E E E  E E   E  E E E E E Q
|------6------6------|-6------6-----6--|
|----8------8------8-|------8----------|
|--8------8------8---|----8-------7----|
|--------------------|----------8------|
|--------------------|-----------------|
|--------------------|-----------------|
|
|  Q   E  Q   E  Q     E  Q   E q   q
|--------------------|-----------------|
|-11-----11-----11---|---11-----6---6--|
|-12-----12-----12---|---12-----7---7--|
|-13-----13-----13---|---13-----8---8--|
|--------------------|-----------------|
|--------------------|-----------------|


   E E E  E E E  E E   E  E E E  E E  Q
|--------------------|--------------------|
|------8------8------|-8------8-------8---|
|----8------8------8-|------8------8------|
|-10-----10-----10---|---10-----10--------|
|--------------------|--------------------|
|--------------------|--------------------|
|
|  Q   E  Q   E  Q     E  Q   E  q    q
|--------------------|--------------------|
|--------------------|----------11---11---|
|-12-----12-----12---|---12-----12---12---|
|-13-----13-----13---|---13-----13---13---|
|-15-----15-----15---|---15---------------|
|--------------------|--------------------|


   E  E  E  E  E  E  E  E    E  E  E  E  E  E  Q
|--------8--------8-------|--8--------8-----------|
|----10-10----10-10----10-|-10----10-10--------8--|
|-10-10----10-10----10-10-|----10-10--------8--8--|
|-------------------------|-------------10-10-----|
|-------------------------|-----------------------|
|-------------------------|-----------------------|
|
|  Q     E  Q     E  Q       E  Q     E  q     q
|-------------------------|-----------------------|
|----------13-------13----|----13-------16----16--|
|-14-------14-------14----|----14-------17----17--|
|-15-------15-------15----|----15-------17----17--|
|-17----------------------|-----------------------|
|-------------------------|-----------------------|


   E E E  E E E  E E   E  E E E  E E  Q
|------6------6------|-6------6-------6---|
|----8-8----8-8----8-|-8----8-8-------8---|
|--7-7----7-7----7-7-|----7-7------7------|
|--------------------|-----------8-8------|
|--------------------|--------------------|
|--------------------|--------------------|
|
|  Q   E  Q   E  Q     E  Q   E  q    q
|--------------------|--------------------|
|-15-----15-----15---|---15---------------|
|-15-----15-----15---|---15-----10---10---|
|-17-----17-----17---|---17-----12---12---|
|--------------------|----------13---13---|
|--------------------|--------------------|


   E E E  E E E  E E   E  E E E E E Q
|------6------6------|-6------6-----6--|
|----8-8----8-8----8-|-8----8-8-----8--|
|--8-8----8-8----8-8-|----8-8-----7----|
|--------------------|----------8-8----|
|--------------------|-----------------|
|--------------------|-----------------|
|
|  Q   E  Q   E  Q     E  Q   E q   q
|--------------------|-----------------|
|-11-----11-----11---|---11-----6---6--|
|-12-----12-----12---|---12-----7---7--|
|-13-----13-----13---|---13-----8---8--|
|--------------------|-----------------|
|--------------------|-----------------|


   E  E E  E  E E  E  E   E  E  E E  E E  Q
|-----------------------|-----------------6---|
|-------8-------8-------|-8-------8----8--8---|
|-----8-8-----8-8-----8-|-8-----8-8--8-8------|
|-10-10---10-10---10-10-|---10-10-------------|
|-----------------------|---------------------|
|-----------------------|---------------------|
|
|  Q    E  Q    E  Q      E  Q    E  q    q
|-----------------------|---------------------|
|-----------------------|-----------11---11---|
|-12------12------12----|---12------12---12---|
|-13------13------13----|---13------13---13---|
|-15------15------15----|---15----------------|
|-----------------------|---------------------|


   E  E  E  E  E  E  E  E    E  E  E  E  E  E  Q
|--------8--------8-------|--8--------8-----------|
|----10-10----10-10----10-|-10----10-10--------8--|
|-10-10----10-10----10-10-|----10-10--------8--8--|
|-------------------------|-------------10-10-----|
|-------------------------|-----------------------|
|-------------------------|-----------------------|
|
|  Q     E  Q     E  Q       E  Q     E  q     q
|-------------------------|-----------------------|
|----------13-------13----|----13-------16----16--|
|-14-------14-------14----|----14-------17----17--|
|-15-------15-------15----|----15-------17----17--|
|-17----------------------|-----------------------|
|-------------------------|-----------------------|


   E E E  E E E  E E   E  E E E  E E  Q
|------6------6------|-6------6-------6---|
|----8-8----8-8----8-|-8----8-8-------8---|
|--7-7----7-7----7-7-|----7-7------7------|
|--------------------|-----------8-8------|
|--------------------|--------------------|
|--------------------|--------------------|
|
|  Q   E  Q   E  Q     E  Q   E  q    q
|--------------------|--------------------|
|-15-----15-----15---|---15---------------|
|-15-----15-----15---|---15-----10---10---|
|-17-----17-----17---|---17-----12---12---|
|--------------------|----------13---13---|
|--------------------|--------------------|


   E E  E  E E  E  E E    E  E E  E E E Q
|------11------11------|-11------11-----6--|
|----8-11----8-11----8-|-11----8-11-----8--|
|--8-8-----8-8-----8-8-|-----8-8------7----|
|----------------------|------------8-8----|
|----------------------|-------------------|
|----------------------|-------------------|
|
|  Q    E  Q    E  Q      E  Q    E q   q
|----------------------|-------------------|
|-11------11------11---|----11------6---6--|
|-12------12------12---|----12------7---7--|
|-13------13------13---|----13------8---8--|
|----------------------|-------------------|
|----------------------|-------------------|


   E  E E  E  E E  E  E   E  E  E E  E  E  Q
|-----------------------|----------------------|
|-------8-------8-------|-8-------8--------8---|
|-----8-8-----8-8-----8-|-8-----8-8-----8--8---|
|-10-10---10-10---10-10-|---10-10---10-10------|
|-----------------------|----------------------|
|-----------------------|----------------------|
|
|  Q    E  Q    E  Q      E  Q    E  q     q
|-----------------------|----------------------|
|-----------------------|-----------11----11---|
|-12------12------12----|---12------12----12---|
|-13------13------13----|---13------13----13---|
|-15------15------15----|---15-----------------|
|-----------------------|----------------------|


   E   E  E  E  E  E  E   E    E  E  E  E  E  E  Q
|---------8--------8--------|--8--------8-----------|
|-----10-10----10-10-----10-|-10----10-10--------8--|
|-10--10----10-10----10--10-|----10-10--------8--8--|
|---------------------------|-------------10-10-----|
|---------------------------|-----------------------|
|---------------------------|-----------------------|
|
|  Q      E  Q     E  Q        E  Q     E  q     q
|---------------------------|-----------------------|
|-----------13-------13-----|----13-------16----16--|
|-14--------14-------14-----|----14-------17----17--|
|-15--------15-------15-----|----15-------17----17--|
|-17------------------------|-----------------------|
|---------------------------|-----------------------|
|
| Gtr V
|  H.                 Q        W
|---------------------------|-----------------------|
|--------------------13\----|-----------------------|
|-14-----------------14\----|--5--------------------|
|---------------------------|--7--------------------|
|---------------------------|-----------------------|
|---------------------------|-----------------------|


   E  E E  E E E  E  E    E  E E E  E E  Q
|-------6------6-------|--6------6-------6---|
|-----8-8----8-8-----8-|--8----8-8-------8---|
|--7--7----7-7----7--7-|-----7-7------7------|
|----------------------|------------8-8------|
|----------------------|---------------------|
|----------------------|---------------------|
|
|  Q    E  Q   E  Q       E  Q   E  q    q
|----------------------|---------------------|
|-15------15-----15----|----15---------------|
|-15------15-----15----|----15-----10---10---|
|-17------17-----17----|----17-----12---12---|
|----------------------|-----------13---13---|
|----------------------|---------------------|
|
|  H.             Q       W
|-----------------3/---|-10------------------|
|-----------------4/---|-11------------------|
|-----------------5/---|-12------------------|
|----------------------|---------------------|
|----------------------|---------------------|
|----------------------|---------------------|


   E  E E  E  E E  E E    E   E E E E E Q
|-------6-------6------|--6-------6-----6--|
|-----8-8-----8-8----8-|--8-----8-8-----8--|
|--8--8----8--8----8-8-|------8-8-----7----|
|----------------------|------------8-8----|
|----------------------|-------------------|
|----------------------|-------------------|
|
|  Q    E  Q    E  Q      E   Q   E q   q
|----------------------|-------------------|
|-11------11------11---|-----11-----6---6--|
|-12------12------12---|-----12-----7---7--|
|-13------13------13---|-----13-----8---8--|
|----------------------|-------------------|
|----------------------|-------------------|
|
|  Q.      Q.      Q     +W
|----------------------|-------------------|
|----------------------|-------------------|
|-15\-----12\------8---|-(8)---------------|
|-17\-----13\------8---|-(8)---------------|
|----------------------|-------------------|
|----------------------|-------------------|


   E   E E  E   E  E  E  E    E   E  E  E   E  E  Q
|--------------------------|----------------------6---|
|--------8---------8-------|--8---------8------8--8---|
|------8-8------8--8-----8-|--8------8--8---8--8------|
|-10--10---10--10----10-10-|-----10-10----------------|
|--------------------------|--------------------------|
|--------------------------|--------------------------|
|
|  Q     E  Q      E  Q       E   Q     E   q     q
|--------------------------|--------------------------|
|--------------------------|---------------11----11---|
|-12-------12--------12----|-----12--------12----12---|
|-13-------13--------13----|-----13--------13----13---|
|-15-------15--------15----|-----15-------------------|
|--------------------------|--------------------------|
|
|  Q.       E  +H             Q.        E  +H
|--------------------------|--------------------------|
|-16\------13-(13)---------|-----------11-(11)--------|
|-17\------12-(12)---------|--8/-------12-(12)--------|
|-17\------13-(13)---------|-10/-------13-(13)--------|
|--------------------------|--------------------------|
|--------------------------|--------------------------|


   E   E  E  E  E  E  E   E    E  E  E  E  E  E  Q
|---------8--------8--------|--8--------8-----------|
|-----10-10----10-10-----10-|-10----10-10--------8--|
|-10--10----10-10----10--10-|----10-10--------8--8--|
|---------------------------|-------------10-10-----|
|---------------------------|-----------------------|
|---------------------------|-----------------------|
|
|  Q      E  Q     E  Q        E  Q     E  q     q
|---------------------------|-----------------------|
|-----------13-------13-----|----13-------16----16--|
|-14--------14-------14-----|----14-------17----17--|
|-15--------15-------15-----|----15-------17----17--|
|-17------------------------|-----------------------|
|---------------------------|-----------------------|
|
|  H.                 Q        W
|---------------------------|-----------------------|
|--------------------13\----|-----------------------|
|-14-----------------14\----|--5--------------------|
|---------------------------|--7--------------------|
|---------------------------|-----------------------|
|---------------------------|-----------------------|


   E  E E  E E E  E  E    E  E E E  E E  Q
|-------6------6-------|--6------6-------6---|
|-----8-8----8-8-----8-|--8----8-8-------8---|
|--7--7----7-7----7--7-|-----7-7------7------|
|----------------------|------------8-8------|
|----------------------|---------------------|
|----------------------|---------------------|
|
|  Q    E  Q   E  Q       E  Q   E  q    q
|----------------------|---------------------|
|-15------15-----15----|----15---------------|
|-15------15-----15----|----15-----10---10---|
|-17------17-----17----|----17-----12---12---|
|----------------------|-----------13---13---|
|----------------------|---------------------|
|
|  H.             Q       W
|-----------------3/---|-10------------------|
|-----------------4/---|-11------------------|
|-----------------5/---|-12------------------|
|----------------------|---------------------|
|----------------------|---------------------|
|----------------------|---------------------|


   E  E  E  E  E  E  E E    E   E E  E E E Q
|-------11-------11------|-11-------11-----6--|
|-----8-11-----8-11----8-|-11-----8-11-----8--|
|--8--8-----8--8-----8-8-|------8-8------7----|
|------------------------|-------------8-8----|
|------------------------|--------------------|
|------------------------|--------------------|
|
|  Q     E  Q     E  Q      E   Q    E q   q
|------------------------|--------------------|
|-11-------11-------11---|-----11------6---6--|
|-12-------12-------12---|-----12------7---7--|
|-13-------13-------13---|-----13------8---8--|
|------------------------|--------------------|
|------------------------|--------------------|
|
|  Q.       Q.       Q     +W
|------------------------|--------------------|
|------------------------|--------------------|
|-15\------12\-------8---|-(8)----------------|
|-17\------13\-------8---|-(8)----------------|
|------------------------|--------------------|
|------------------------|--------------------|


   E   E E  E   E  E  E  E    E   E  E  E   E   E  Q
|--------------------------|---------------------------|
|--------8---------8-------|--8---------8----------8---|
|------8-8------8--8-----8-|--8------8--8-------8--8---|
|-10--10---10--10----10-10-|-----10-10-----10--10------|
|--------------------------|---------------------------|
|--------------------------|---------------------------|
|
|  Q     E  Q      E  Q       E   Q     E   q      q
|--------------------------|---------------------------|
|--------------------------|---------------11-----11---|
|-12-------12--------12----|-----12--------12-----12---|
|-13-------13--------13----|-----13--------13-----13---|
|-15-------15--------15----|-----15--------------------|
|--------------------------|---------------------------|
|
|  Q.       E  +H             Q.        E  +H
|--------------------------|---------------------------|
|-16\------13-(13)---------|-----------11-(11)---------|
|-17\------12-(12)---------|--8/-------12-(12)---------|
|-17\------13-(13)---------|-10/-------13-(13)---------|
|--------------------------|---------------------------|
|--------------------------|---------------------------|


   E   E  E  E  E  E  E   E    E  E  E  E  E  E  Q
|---------8--------8--------|--8--------8-----------|
|-----10-10----10-10-----10-|-10----10-10--------8--|
|-10--10----10-10----10--10-|----10-10--------8--8--|
|---------------------------|-------------10-10-----|
|---------------------------|-----------------------|
|---------------------------|-----------------------|
|
|  Q      E  Q     E  Q        E  Q     E  q     q
|---------------------------|-----------------------|
|-----------13-------13-----|----13-------16----16--|
|-14--------14-------14-----|----14-------17----17--|
|-15--------15-------15-----|----15-------17----17--|
|-17------------------------|-----------------------|
|---------------------------|-----------------------|
|
|  H.                 Q        W
|--------------------17\----|--8--------------------|
|-13-----------------13\----|-----------------------|
|-14-----------------14\----|--5--------------------|
|---------------------------|--7--------------------|
|---------------------------|-----------------------|
|---------------------------|-----------------------|


   E  E E  E E E  E  E    E  E E E  E E  Q
|-------6------6-------|--6------6-------6---|
|-----8-8----8-8-----8-|--8----8-8-------8---|
|--7--7----7-7----7--7-|-----7-7------7------|
|----------------------|------------8-8------|
|----------------------|---------------------|
|----------------------|---------------------|
|
|  Q    E  Q   E  Q       E  Q   E  q    q
|----------------------|---------------------|
|-15------15-----15----|----15---------------|
|-15------15-----15----|----15-----10---10---|
|-17------17-----17----|----17-----12---12---|
|----------------------|-----------13---13---|
|----------------------|---------------------|
|
|  H.             Q       W
|-----------------3/---|-10------------------|
|-----------------4/---|-11------------------|
|-----------------5/---|-12------------------|
|----------------------|---------------------|
|----------------------|---------------------|
|----------------------|---------------------|


   E  E E  E  E E  E E    E   E E E E E Q
|-------6-------6------|--6-------6-----6--|
|-----8-8-----8-8----8-|--8-----8-8-----8--|
|--8--8----8--8----8-8-|------8-8-----7----|
|----------------------|------------8-8----|
|----------------------|-------------------|
|----------------------|-------------------|
|
|  Q    E  Q    E  Q      E   Q   E q   q
|----------------------|-------------------|
|-11------11------11---|-----11-----6---6--|
|-12------12------12---|-----12-----7---7--|
|-13------13------13---|-----13-----8---8--|
|----------------------|-------------------|
|----------------------|-------------------|
|
|  Q.      Q.      Q     +W
|----------------------|-------------------|
|-16\-----13\------8---|-(8)---------------|
|-15\-----12\------8---|-(8)---------------|
|-17\-----13\------8---|-(8)---------------|
|----------------------|-------------------|
|----------------------|-------------------|


   E   E E  E   E  E  E  E    E   E  E  E   E  E  Q
|--------------------------|----------------------6---|
|--------8---------8-------|--8---------8------8--8---|
|------8-8------8--8-----8-|--8------8--8---8--8------|
|-10--10---10--10----10-10-|-----10-10----------------|
|--------------------------|--------------------------|
|--------------------------|--------------------------|
|
|  Q     E  Q      E  Q       E   Q     E   q     q
|--------------------------|--------------------------|
|--------------------------|---------------11----11---|
|-12-------12--------12----|-----12--------12----12---|
|-13-------13--------13----|-----13--------13----13---|
|-15-------15--------15----|-----15-------------------|
|--------------------------|--------------------------|
|
|  Q.       E  +H             Q.        E  +H
|-20\------15-(15)---------|-11/-------15-(15)--------|
|-16\------13-(13)---------|-----------11-(11)--------|
|-17\------12-(12)---------|--8/-------12-(12)--------|
|-17\------13-(13)---------|-10/-------13-(13)--------|
|--------------------------|--------------------------|
|--------------------------|--------------------------|


   E   E  E  E  E  E  E   E    E  E  E  E  E  E  Q
|---------8--------8--------|--8--------8-----------|
|-----10-10----10-10-----10-|-10----10-10--------8--|
|-10--10----10-10----10--10-|----10-10--------8--8--|
|---------------------------|-------------10-10-----|
|---------------------------|-----------------------|
|---------------------------|-----------------------|
|
|  Q      E  Q     E  Q        E  Q     E  q     q
|---------------------------|-----------------------|
|-----------13-------13-----|----13-------16----16--|
|-14--------14-------14-----|----14-------17----17--|
|-15--------15-------15-----|----15-------17----17--|
|-17------------------------|-----------------------|
|---------------------------|-----------------------|
|
|  H.                 Q        W
|-17-----------------17\----|--8--------------------|
|-13-----------------13\----|-----------------------|
|-14-----------------14\----|--5--------------------|
|---------------------------|--7--------------------|
|---------------------------|-----------------------|
|---------------------------|-----------------------|


   E  E E  E E E  E  E    E  E E E  E E  Q
|-------6------6-------|--6------6-------6---|
|-----8-8----8-8-----8-|--8----8-8-------8---|
|--7--7----7-7----7--7-|-----7-7------7------|
|----------------------|------------8-8------|
|----------------------|---------------------|
|----------------------|---------------------|
|
|  Q    E  Q   E  Q       E  Q   E  q    q
|----------------------|---------------------|
|-15------15-----15----|----15---------------|
|-15------15-----15----|----15-----10---10---|
|-17------17-----17----|----17-----12---12---|
|----------------------|-----------13---13---|
|----------------------|---------------------|
|
|  H.             Q       W
|-----------------8/---|-18------------------|
|-----------------8/---|-15------------------|
|-----------------8/---|-15------------------|
|----------------10/---|-17------------------|
|----------------------|---------------------|
|----------------------|---------------------|


   E  E  E  E  E  E  E E    E   E E  E E E Q
|-------11-------11------|-11-------11-----6--|
|-----8-11-----8-11----8-|-11-----8-11-----8--|
|--8--8-----8--8-----8-8-|------8-8------7----|
|------------------------|-------------8-8----|
|------------------------|--------------------|
|------------------------|--------------------|
|
|  Q     E  Q     E  Q      E   Q    E q   q
|------------------------|--------------------|
|-11-------11-------11---|-----11------6---6--|
|-12-------12-------12---|-----12------7---7--|
|-13-------13-------13---|-----13------8---8--|
|------------------------|--------------------|
|------------------------|--------------------|
|
|  Q.       Q.       Q     +W
|------------------------|--------------------|
|-16\------13\-------8---|-(8)----------------|
|-15\------12\-------8---|-(8)----------------|
|-17\------13\-------8---|-(8)----------------|
|------------------------|--------------------|
|------------------------|--------------------|


   E   E E  E   E  E  E  E    E   E  E  E   E   E  Q
|--------------------------|---------------------------||
|--------8---------8-------|--8---------8----------8---||
|------8-8------8--8-----8-|--8------8--8-------8--8---||
|-10--10---10--10----10-10-|-----10-10-----10--10------||
|--------------------------|---------------------------||
|--------------------------|---------------------------||
|
|  Q     E  Q      E  Q       E   Q     E   q      q
|--------------------------|---------------------------||
|--------------------------|---------------11-----11---||
|-12-------12--------12----|-----12--------12-----12---||
|-13-------13--------13----|-----13--------13-----13---||
|-15-------15--------15----|-----15--------------------||
|--------------------------|---------------------------||
|
|  Q.       E  +H             Q.        E  +H
|-20\------15-(15)---------|-11/-------15-(15)---------||
|-16\------13-(13)---------|-----------11-(11)---------||
|-17\------12-(12)---------|--8/-------12-(12)---------||
|-17\------13-(13)---------|-10/-------13-(13)---------||
|--------------------------|---------------------------||
|--------------------------|---------------------------||


   W               +W
|---------------|-----------------|
|-11------------|-(11)------------|
|-12------------|-(12)------------|
|---------------|-----------------|
|---------------|-----------------|
|---------------|-----------------|
|
|  Q  Q   Q  Q      Q   Q   Q  Q
|---------------|-----------------|
|-15-----15-----|--15------15-----|
|-15-----15-----|--15------15-----|
|---------------|-----------------|
|---------------|-----------------|
|---------------|-----------------|


   W               W               W
|---------------|---------------|-----------------|
|---------------|---------------|-----------------|
|---------------|---------------|-----------------|
|---------------|---------------|-----------------|
|---------------|---------------|-----------------|
|---------------|---------------|-----------------|
|
|  Q  Q   Q  Q     Q  Q   Q  Q     Q  Q   Q  Q
|---------------|---------------|-----------------|
|-15-----15-----|-15-----13-----|-11-----11-------|
|-15-----15-----|-14-----14-----|-10-----10-------|
|---------------|---------------|-----------------|
|---------------|---------------|-----------------|
|---------------|---------------|-----------------|


  Gtr II
   Q  Q   Q  Q    Q  Q  Q  Q    Q  Q   Q  Q    Q  Q  Q  Q     Q  Q  Q  Q
|---------------|-------------|--------------|-------------|----------------|
|-11-----10-----|-8-----8-----|-8-----10-----|-8-----8-----|--------8-------|
|-10------------|-7-----7-----|-7------------|-7-----7-----|--8-----8-------|
|--------10-----|-------------|-------10-----|-------------|-10-------------|
|---------------|-------------|--------------|-------------|----------------|
|---------------|-------------|--------------|-------------|----------------|


  Gtr V
   Q.     E  +H         Q.     Q.      Q
|--------------------|---------------------|
|-15\----11-(11)-----|-15\----13/-----16\--|
|--------------------|---------------------|
|--------------------|---------------------|
|--------------------|---------------------|
|--------------------|---------------------|
|
| Gtr II
|  Q   Q      Q   Q     Q   Q      Q   Q
|--------------------|---------------------|
|-15---------15------|-15---------13-------|
|-15---------15------|-14---------14-------|
|--------------------|---------------------|
|--------------------|---------------------|
|--------------------|---------------------|


   Q.     Q.      Q      Q.    E +H
|---------------------|-------------------|
|-15\----10/-----11\--|--6\----4-(4)------|
|---------------------|-------------------|
|---------------------|-------------------|
|---------------------|-------------------|
|---------------------|-------------------|
|
|  Q   Q      Q   Q      Q   Q    Q   Q
|---------------------|-------------------|
|-11---------11-------|-11-------10-------|
|-10---------10-------|-10----------------|
|---------------------|----------10-------|
|---------------------|-------------------|
|---------------------|-------------------|


   Q.     E  +H         Q.     Q.      Q
|--------------------|---------------------|
|-20\----15-(15)-----|-15\----13/-----16\--|
|--------------------|---------------------|
|--------------------|---------------------|
|--------------------|---------------------|
|--------------------|---------------------|
|
|  Q   Q      Q   Q     Q   Q      Q   Q
|--------------------|---------------------|
|--8----------8------|--8---------10-------|
|--7----------7------|--7------------------|
|--------------------|------------10-------|
|--------------------|---------------------|
|--------------------|---------------------|


   Q.     E  +H         Q.    Q.     Q
|--------------------|-------------------|
|-15\----11-(11)-----|-13\----8/----11---|
|--------------------|-------------------|
|--------------------|-------------------|
|--------------------|-------------------|
|--------------------|-------------------|
|
|  Q   Q      Q   Q     Q   Q    Q   Q
|--------------------|-------------------|
|--8----------8------|-----------8-------|
|--7----------7------|--8--------8-------|
|--------------------|-10----------------|
|--------------------|-------------------|
|--------------------|-------------------|


   Q.     E  +H          Q.       Q.        Q
|--------------------|---------------------------|
|-15\----11-(11)-----|--15\------13/-------16\---|
|-15\----10-(10)-----|-(15)\----(14)/-----(17)\--|
|--------------------|---------------------------|
|--------------------|---------------------------|
|--------------------|---------------------------|
|
|  Q   Q      Q   Q      Q    Q        Q    Q
|--------------------|---------------------------|
|-15---------15------|--15------------13---------|
|-15---------15------|--14------------14---------|
|--------------------|---------------------------|
|--------------------|---------------------------|
|--------------------|---------------------------|


   Q.     Q.      Q      Q.    E +H
|---------------------|-------------------|
|--6/----10/-----11\--|--6\----4-(4)------|
|---------------------|-------------------|
|---------------------|-------------------|
|---------------------|-------------------|
|---------------------|-------------------|
|
|  Q   Q      Q   Q      Q   Q    Q   Q
|---------------------|-------------------|
|-11---------11-------|-11-------10-------|
|-10---------10-------|-10----------------|
|---------------------|----------10-------|
|---------------------|-------------------|
|---------------------|-------------------|


   Q.     E  +H          Q.       Q.        Q
|--------------------|---------------------------|
|-20\----15-(15)-----|--15\------13/-------16\---|
|-19\----15-(15)-----|-(15)\----(14)/-----(17)\--|
|--------------------|---------------------------|
|--------------------|---------------------------|
|--------------------|---------------------------|
|
|  Q   Q      Q   Q      Q    Q        Q    Q
|--------------------|---------------------------|
|--8----------8------|---8------------10---------|
|--7----------7------|---7-----------------------|
|--------------------|----------------10---------|
|--------------------|---------------------------|
|--------------------|---------------------------|


   Q.     E  +H         Q.    Q.    +Q
|--------------------|---------------------|
|-15\----11-(11)-----|-13\----8-----(8)/---|
|-15\----12-(12)-----|-12\----8-----(8)/---|
|--------------------|---------------------|
|--------------------|---------------------|
|--------------------|---------------------|
|
|  Q   Q      Q   Q     Q   Q    Q   Q
|--------------------|---------------------|
|--8----------8------|-----------8---------|
|--7----------7------|--8--------8---------|
|--------------------|-10------------------|
|--------------------|---------------------|
|--------------------|---------------------|


     Q.     E  +H          Q.       Q.        Q
||---------------------|---------------------------|
||o-15\----11-(11)-----|--15\------13/-------16\---|
||--15\----10-(10)-----|-(15)\----(14)/-----(17)\--|
||---------------------|---------------------------|
||o--------------------|---------------------------|
||---------------------|---------------------------|
|
|    Q   Q      Q   Q      Q    Q        Q    Q
||---------------------|---------------------------|
||o-15---------15------|--15------------13---------|
||--15---------15------|--14------------14---------|
||---------------------|---------------------------|
||o--------------------|---------------------------|
||---------------------|---------------------------|


   Q.     Q.      Q      Q.    E +H
|---------------------|------------------|
|--6/----10/-----11\--|--6\----4-(4)-----|
|---------------------|------------------|
|---------------------|------------------|
|---------------------|------------------|
|---------------------|------------------|
|
|  Q   Q      Q   Q      Q   Q    Q   Q
|---------------------|------------------|
|-11---------11-------|-11-------10------|
|-10---------10-------|-10---------------|
|---------------------|----------10------|
|---------------------|------------------|
|---------------------|------------------|


   Q.     E  +H          Q.       Q.        Q
|--------------------|---------------------------|
|-20\----15-(15)-----|--15\------13/-------16\---|
|-19\----15-(15)-----|-(15)\----(14)/-----(17)\--|
|--------------------|---------------------------|
|--------------------|---------------------------|
|--------------------|---------------------------|
|
|  Q   Q      Q   Q      Q    Q        Q    Q
|--------------------|---------------------------|
|--8----------8------|---8------------10---------|
|--7----------7------|---7-----------------------|
|--------------------|----------------10---------|
|--------------------|---------------------------|
|--------------------|---------------------------|


   Q.     E  +H         Q.    Q.    Q
|--------------------|--------------------||
|-15\----11-(11)-----|-13\----8-----8/---o||
|-15\----12-(12)-----|-12\----8-----8/----||
|--------------------|--------------------||
|--------------------|-------------------o||
|--------------------|--------------------||
|
|  Q   Q      Q   Q     Q   Q    Q  Q
|--------------------|--------------------||
|--8----------8------|-----------8-------o||
|--7----------7------|--8--------8--------||
|--------------------|-10-----------------||
|--------------------|-------------------o||
|--------------------|--------------------||



Duration Legend
---------------
W - whole; H - half; Q - quarter; E - 8th; S - 16th; T - 32nd; X - 64th; a - acciaccatura
+ - note tied to previous; . - note dotted; .. - note double dotted
Uncapitalized letters represent notes that are staccato (1/2 duration)
Irregular groupings are notated above the duration line
Duration letters will always appear directly above the note/fret number it represents the
duration for.  Duration letters with no fret number below them represent rests.  Multi-
bar rests are notated in the form Wxn, where n is the number of bars to rest for.  Low
melody durations appear below the staff

Tablature Legend
----------------
 h   - hammer-on
 p   - pull-off
 b   - bend
 pb  - pre-bend
 r   - bend release (if no number after the r, then release immediately)
 /\  - slide into or out of (from/to "nowhere")
 s   - legato slide
 S   - shift slide
 - natural harmonic
[n]  - artificial harmonic
n(n) - tapped harmonic
 ~   - vibrato
 tr  - trill
 T   - tap
 TP  - trem. picking
 PM  - palm muting
\n/  - tremolo bar dip; n = amount to dip
 \n  - tremolo bar down
 n/  - tremolo bar up
/n\  - tremolo bar inverted dip
 =   - hold bend; also acts as connecting device for hammers/pulls
 <> - volume swell (louder/softer)
 x   - on rhythm slash represents muted slash
 o   - on rhythm slash represents single note slash

Misc Legend
-----------
 |  - bar
||  - double bar
||o - repeat start
o|| - repeat end
*|  - double bar (ending)
 :  - bar (freetime)
 $  - Segno
 &  - Coda
Tempo markers -  = BPM(8/16=s8/s16), where s8 = swing 8ths, s16 = swing 16ths





Comments


Popular Ratatat tabs & chords
Nostrand Intro Bass Tabs
Wildcat 1 Bass Tabs
Drugs Tabs
Lex Tabs
Loud Pipes Tabs
Party And Bullshit Intro Tabs
Shempi Tabs
Shiller Tabs
Sunblocks Tabs
Wildcat 1 Tabs


Song lyrics



↑ Back to top | Tablatures and chords are parodies/interpretations of the original songs. You may use it for private study, scholarship, research or language learning purposes only
© 2014 AZChords.com Contact us | Privacy policy | DMCA | Add/correct tabs | Request tabs | Top 50 tabs