» » »

Rancid, Time Bomb Bass tabs (ver.2)

Artists:  A B C D E F G H I J K L M N O P Q R S T U V W X Y Z # 

Time Bomb Bass tabs (ver.2)

Rancid Tabs
Rating:
0/5 (0 votes)
Time Bomb lessons Tabs too difficult? Try these video lessons and learn fast
                bassist: Matt freeman

G-----------------------------------|
D-----------------------------------|
A---2--2--2---------2--2--2--/7-7---|
E------------33-3-------------------|
:
verse- all notes X2- @=strum once only
G---------------@@@@--------------@@------------@@@@------------------|
D---------4-2-4-2-------------------------4-2-4-2---------------------|x1
A---2-4-5--------5452-4-5-4--------52-4-5--------5452-4-5-4-------2---|
E---------------------------0-2-3-3-------------------------0-2-4-----|
:
chorus- all notes X2-@=strum once only- &&=ten, not one and zero
G---------@@----------&&----------@@---|
D--------------------------------------|x2
A---0-4-7-475-4-5-6-7-109-7-5-4-5-57---|
E--------------------------------------|
:
Then play verse
Then play chorusX2
Then play verse
Then play chorusX2

break *=play 14-16 times
G-------------------|
D-------------------|
A----*--------------|
E---0---------------|
:
Then play verse
:
bridge
G---------------------------------------------------------------------|
D---------------------------------------------------------------------|
A-------4-7-5\4-5-6-7777555544457547----4-7-5-4-5-6-7-------5---------|
E---55-5----------------------------55-5------------------------------|
:
Then play verse
Then play chorusX4
Then play break
End on E---5---5---5---
            

comments powered by Disqus
↑ Back to top | Rancid Bass for Time Bomb. Lyrics for acoustic guitar and electric guitar. Tablatures and chords are parodies/interpretations of the original songs. You may use it for private study, scholarship, research or language learning purposes only