» » »

Rancid, Time Bomb Tabs (ver.2)

Artists:  A B C D E F G H I J K L M N O P Q R S T U V W X Y Z # 

Time Bomb Tabs (ver.2)

Rancid Tabs
 Rating:
4/5 (4 votes)
Time Bomb lessons Tabs too difficult? Try these video lessons and learn fast
                

Key:                                       ||  Chords:
                                           ||

sl.(/) - slide up                          ||  Bm- 799777

#p# - pull off                             ||  E - X79997

X - mute with left hand and strum (scratch)||  A - 577655

~ - let ring                               ||  D - X57775



Intro: (B, E, B, and E)--in this part there's no organ.

e -------------------------------------

B -------------------------------------

G -4-4-4-----------4-4-4--sl.-9-9-9----

D -4-4-4--2-2-2----4-4-4---/--9-9-9----  (1st guitar)

A -2-2-2--2-2-2----2-2-2------7-7-7----

E --------0-0-0------------------------


e -------------------------------------

B ---------------3-0~--------------3-0~

G --------------2-----------------2----  (2nd guitar)

D -------------------------------------

A -------------------------------------

E -------------------------------------


Main Riff: (Bm and E)

e ------------------

B ------------------

G ---------9X9X9X9X-  Repeat as many times

D -9X9X9X9-9X9X9X9X-  as necessary until

A -9X9X9X9-7X7X7X7X-  chorus riff

E -7X7X7X7----------

   

Chorus Riff: (A, D, E, and D) 

e --------------------------------------------------------------------

B -----------------------------------Repeat as necessary,-------------

G ---------7X7X7X7-9X9X9X9-7X7X7X7---and just before------------------

D -7X7X7X7-7X7X7X7-9X9X9X9-7X7X7X7---the solo you play:---2-2-2-2-2-2-

A -7X7X7X7-5X5X5X5-7X7X7X7-5X5X5X5------------------------2-2-2-2-2-2-

E -5X5X5X5------------------------------------------------0-0-0-0-0-0-

                                                         ("Time Bomb!!!")      

Solo:  (background chords:same as main riff)

e -------------------------------------------------------------------

B -------------------------------------------------------------------

G -4-2-4-77777-6-4-2-4-77777-6-4-2-4-77777p6p77p6p77p6p77p6p777~-----

D -------------------------------------------------------------------

A -------------------------------------------------------------------

E -------------------------------------------------------------------



Organ Solo arranged for guitar:(background chords: same as chorus,except 
let the E and D ring out on last measure)

e -------------------------------------------------------------------

B ---9/10-7-10-7-8/9-7-----------------------------------------------

G ---------------------9-6-6-7-7-7-6-----6---7-6---7-6-7-6-7-9~------

D -----------------------------------9-7---7-----7-------------------

A -------------------------------------------------------------------

E -------------------------------------------------------------------

Repeat the verse one more time and chorus twice. In the end you play 
E("Time Bomb!!!"),then A three times.


Here are the entire lyrics:

If you wanna make the move then you better come in

It's just the ability to reason that wears so thin

Living and dying and the stories that are true

The secret to a good life is knowing when you're through



Black coat, white shoes, black hat, Cadillac

The boy's a time bomb



He's back in the hole where they got him living like a rat

Be he's smarter than that  Nine lives like a cat

Take him to the youth authority home

First thing you learn is you got to make it in this world alone

Now he's gotten out  He's gotten free  He's gotta go

Gotta car 21 years old   He's runnin' numbers from the bar

His pager's beepin'  He's gettin' deep in whatever

He can move on in  You know that kid's a creepin' in



Tears come from the razor that's been tattooed below his eye

His mother cries  She knows that he is strong enough to die

He's rollin' in the Cadillac  It's midnight  Sunroof is down

Three shots rung out the herd's deal  The new king is crowned.



Thank's to Andy Amoeba, who tabbed most of 
this.                                   
            
Submit corrections

comments powered by Disqus
↑ Back to top | Rancid Tabs for Time Bomb. Lyrics for acoustic guitar and electric guitar. Tablatures and chords are parodies/interpretations of the original songs. You may use it for private study, scholarship, research or language learning purposes only