>
 >
The Way I Feel

The Way I Feel Guitar Tabs

Rancid - The Way I Feel chords, tabs, tablatures, lyrics

Guitar lessons | Add/correct | Request | Top 50 tabs Artists:  A B C D E F G H I J K L M N O P Q R S T U V W X Y Z 0-9

The Way I Feel Guitar Tabs – Rancid

CD, Sheet music, Poster

Do you like The Way I Feel? Share with your friends now
ChordsTabsTabs v2Tabs v3Ukulele
Intro:
E|-----------------------------
B|-----------------------------
G|--10--9--7--5--4--2----------
D|--10--9--7--5--4--2--4/5-----
A|--8---7--5--3--2--0--4/5-----
E|---------------------2/3-----

Verse (Pick me back up…)
E|-----------------------------
B|-----------------------------
G|-----5-----5-----5-----------
D|--3--5--5--5--3--5--5--------
A|--3--3--5--3--3--3--5--------
E|--1-----3-----1-----3--------

Pre-Chorus (You say that im…)
E|-----------------------------
B|-----------------------------
G|-----------------------------
D|--4/5--4/5--5/3--------------
A|--4/5--4/5--5/3--------------
E|--2/3--2/3--3/1--pick-scrape-

Chorus (Nah nah nah nah…):
Start off with this…Then improvise a fill with this
E|-8--8h10--8--8h10-|--------------------------8-10
B|-8--8h10--8--8h10-|---------------------8-10-----
G|------------------|----------------8-10----------
D|------------------|-----------8-10---------------
A|------------------|------8-10--------------------
E|------------------|-8-11-------------------------

Solo: Use the scale for the chorus for a solo.

Song Order
Intro 
Verse
Pre-Chorus
Chorus
Verse
Pre-Chorus
Chorus
Intro
Solo
Verse (slower)
Pre-Chorus
Chorus 2x





Comments


Popular Rancid tabs & chords
Life Won't Wait Bass Tabs
Listed M.I.A 2 Bass Tabs
Whirlwind Bass Tabs
East Bay Night Chords
11th Hour Tabs
Battering Ram Tabs
Last One To Die 3 Tabs
Poison Tabs
Back Up Against The Wall Ukulele
Disconnected Ukulele


Song lyrics



↑ Back to top | Tablatures and chords are parodies/interpretations of the original songs. You may use it for private study, scholarship, research or language learning purposes only
© 2014 AZChords.com Contact us | Privacy policy | DMCA | Add/correct tabs | Request tabs | Top 50 tabs