» » »

The Way I Feel Tabs (ver.3)

Artists:  A B C D E F G H I J K L M N O P Q R S T U V W X Y Z # 

The Way I Feel Tabs (ver.3)

Rancid
Rating:
0/5 (0 votes)

Hard to play? Try these video lessons and learn fast.
                THE WAY I FEEL


    F    G    C    F*   E    D    B    A    F#
e------------------------------------------------
B------------------------------------------------
G-------------5----10---9----7----4----2---------
D---3----5----5----10---9----7----4----2----4----
A---3----5----3----8----7----5----2----0----4----
E---1----3----------------------------------2----

F* E D C B A

F# G F# G F# G F# G

e-------------------------------------------
B-5-5-5-9-5-5-5-5-5-9-5-5-5-4-0-0-0-4-5-4-0-
G-------------------------------------------
D-------------------------------------------
A-------------------------------------------
E-------------------------------------------

  C

F            C          G             C
Pick me back up just to throw me back down
F             C                G
Apologies too late when you're up against the wall
F          C             G       C
Compassion heals while duplicity kills
G...                           G...
You say that I'm different you say that I'm different
F...                                             C
The only thing different is the way I feel about you

C                       G
Na na na na na na na na na na na

F                C           G          C
You moved up the ladder at a very rapid speed
F          C              G
We moved methodically and calmly
F                   C       G      C
When you got to the top you saw enemies
G...                           G...
You say that I'm different you say that I'm different
F...                                             C
The only thing different is the way I feel about you

C                       G
Na na na na na na na na na na na

F* E D C B A

F# G F# G F# G F# G

e-------------------------------------------
B-5-5-5-9-5-5-5-5-5-9-5-5-5-4-0-0-0-4-5-4-0-
G-------------------------------------------
D-------------------------------------------
A-------------------------------------------
E-------------------------------------------
  C

F         C         G      C
If I knew then what I know now
              F        C        G    C 
That it would all turn out like this
F       C            G         C
I'd sit back and I'd watch you squirm
G...                           G...
You say that I'm different you say that I'm different
F...                                             C
The only thing different is the way I feel about you

C                       G
Na na na na na na na na na na na

F* E D C B A G
            
Hard to play? Try these video lessons and learn fast. | Correct




comments powered by Disqus
↑ Back to top | Tablatures and chords are parodies/interpretations of the original songs. You may use it for private study, scholarship, research or language learning purposes only