» » »

Rancid, Radio Havana Bass tabs (ver.3)

Artists:  A B C D E F G H I J K L M N O P Q R S T U V W X Y Z # 

Radio Havana Bass tabs (ver.3)

Rancid Tabs
 Rating:
4/5 (4 votes)
Radio Havana lessons Tabs too difficult? Try these video lessons and learn fast
                verse
G:-------------------------0-220-00------------------------------------
D:-----------22-55-2-0---22-----2--2-0---------------------------------
A:----00-1-0----------33-----------------------------------------------
E:-11------------------------------------------------------------------

pre-chorus
G:---------------------------------------------------------------------
D:---------------------------------------------------------------------
A:-3333333-0000--------------------------------------------------------
E:--------------3333---------------------------------------------------

chorus
G:-0-3-4-55555-77------------------------------------------------------
D:----------------55555-77777------------------------------------------
A:----------------------------7----------------------------------------
E:---------------------------------------------------------------------


G:---------------------------------------------------------------------
D:---------------------------------------------------------------------
A:-------------3333333333-0000----------------33333333--00000----------
E:-11111111111-----------------33333--------------------------333333---

verse (yeah i gotta right blah blah blah)
G:----------------------0-3-4-55----5----------------------------------
D:-0-1-2-33--3----x2-------------55------------------------------------
A:---------33------------------------3---------------------------------
E:---------------------------------------------------------------------
            
Submit corrections

comments powered by Disqus
↑ Back to top | Rancid Bass for Radio Havana. Lyrics for acoustic guitar and electric guitar. Tablatures and chords are parodies/interpretations of the original songs. You may use it for private study, scholarship, research or language learning purposes only