» » »

Rancid, Radio Havana Bass tabs (ver.1)

Artists:  A B C D E F G H I J K L M N O P Q R S T U V W X Y Z # 

Radio Havana Bass tabs (ver.1)

Rancid Tabs
 Rating:
4/5 (4 votes)
Radio Havana lessons Tabs too difficult? Try these video lessons and learn fast
1
                Standard tuning

Verse 1/2:
G----------------------------------------
D--------------5----------5--7-5---5-----
A-----0-3----7---7-5-3--7--------7----7-5
E-0-1------------------------------------

pre chorus:
G--------------------
D--------------------
A-33333333--000------
E---------------333--

Chorus:
G---55555-7---------------------
D-----------555555-777777-222222
A-------------------------------
E-------------------------------

3rd verse:
G--------------------
D--------------------
A----------3333-00---
E-11111111--------333

Bridge:
G--------------           G--0-3-4--5-5--
D-0-1-2-3---3--  X2  then D----------5---  X2
A---------3----           A-------------3
E-------------1           E--------------

During guitar riff:
G-------------------
D-------------------
A--00000000---------
E-----------33333333

End:
G----------------------
D-2h3-2-0--------------
A---------3-0-2-0~----0
E----------3-----------

order:
1/2 verse X3
pre chorus X2
Chorus X2
1/2 Verse X3
pre chorus X2
Chorus X2
Bridge X2
3rd Verse X3
pre chorus X2
Brigde X4
Guitar riff X1
Chorus X6
end X1
This is a cool Rancid song and i think Rancid 2000 was one of their best albums
            
Submit corrections

comments powered by Disqus
↑ Back to top | Rancid Bass for Radio Havana. Lyrics for acoustic guitar and electric guitar. 1 Tablatures and chords are parodies/interpretations of the original songs. You may use it for private study, scholarship, research or language learning purposes only