» » »

Rancid, Out Of Control Tabs (ver.2)

Artists:  A B C D E F G H I J K L M N O P Q R S T U V W X Y Z # 

Out Of Control Tabs (ver.2)

Rancid Tabs
Rating:
0/5 (0 votes)
Out Of Control lessons Tabs too difficult? Try these video lessons and learn fast
                this is a kik a$$ fast song, its pretty easy, but u gotta know how to move ur hands pretty fast



courds repeated thruout the song
e----------------------------------------------------------------
b----------------------------------------------------------------
g--5---------6-----------------------------------------------------
D--5--3---6--6-------------------------------------------------------
a--3--3---6--4-------------------------------------------------------
e-----1---4--------------------------------------------------------


part during middle of verse
e----------------------------------------------------------------
b----------------------------------------------------------------
g--6-5-5-5--4-4-4-------------------------------------------------------
D--6-5-5-5--4-4-4-5------------------------------------------------------
a--4-3-3-3--2-2-2-5------------------------------------------------------
e-----------------3-----------------------------------------------


chourus                            'WEER OUTTA CONTROL...'
e--STAY OUTTA CONTROL------------------------------------------------------
b----------------------------------------------------------------
g---------5-------------------------------------------------------
D---7-6---5------------------------6------------5---------------------
a---7-6---3------------------------6------------5---------------------
e---5-4----------------------------4------------3--------------------




well this is luke signing off, sayin, STAY OUTTA CONTROL
            

comments powered by Disqus
↑ Back to top | Rancid Tabs for Out Of Control. Lyrics for acoustic guitar and electric guitar. Tablatures and chords are parodies/interpretations of the original songs. You may use it for private study, scholarship, research or language learning purposes only