» » »

Rancid, Out Of Control Bass tabs (ver.1)

Artists:  A B C D E F G H I J K L M N O P Q R S T U V W X Y Z # 

Out Of Control Bass tabs (ver.1)

Rancid Tabs
 Rating:
4/5 (4 votes)
Out Of Control  lessons Tabs too difficult? Try these video lessons and learn fast
                (2)
intro 
G------------------------
D------------------------
A-33-------4444-------
E----11-4--------------x12

verse
G---------------------
D----------------------
A-33--------4444----
E-----11-4------------x4

G---------------------------------------------
D---------------------------------------------
A-4-3333-3-2222------------------------
E----------------------4-33333333-------

G----------------------
D-----------------------
A-33-------4444-----
E----11-4------------x4

chorus
G-------------------------------
D----------------------------------
A----------------------------------
E-44444444-88888888---x3

G-------
D--------
A---------
E-4--2--

verse

chorus

ending
G---------------------
D----------------------
A-33--------4444---
E-----44-4-----------x3

G------
D------
A------
E-3~-----
            
Submit corrections

comments powered by Disqus
↑ Back to top | Rancid Bass for Out Of Control. Lyrics for acoustic guitar and electric guitar. Tablatures and chords are parodies/interpretations of the original songs. You may use it for private study, scholarship, research or language learning purposes only