» » »

Lulu Tabs (ver.2)

Artists:  A B C D E F G H I J K L M N O P Q R S T U V W X Y Z # 

Lulu Tabs (ver.2)

Rancid
Rating:
0/5 (0 votes)

Tabs too difficult? Try these video lessons and learn fast.
                (Intro)
INTRO

E---------------------------------------------------------------------------|
B---------------------------------------------------------------------------|
G---------------------------------------------------------------------------|
D-8888888888888-3333333333333-3-5-7-888888888888-7-8-1010101010101010101010-|
A-8888888888888-3333333333333-3-5-7-888888888888-7-8-1010101010101010101010-|
E-6666666666666-1111111111111-1-3-5-666666666666-5-6--8-8-8-8-8-8-8-8-8-8-8-|


                                a-a-a-a-a-a-a-a-a-a-ah        LULU
E--------------------------------------------------------------|
B--------------------------------------------------------------|
G-------10--------10-10----------------------------------------| (x2)
D-------10---10---10-10---10---8-8-8-8-8-8-10-10-10-10-10-10-10|
A--------8---10----8--8---10---8-8-8-8-8-8-10-10-10-10-10-10-10|
E-------------8------------8---6-6-6-6-6-6--8--8--8--8--8--8--8|

                                                                         (x2)
E---------------------------------------------------------------------------|
B---------------------------------------------------------------------------|
G------------------------------------------------10101010101010-------------|
D888888888888888-777777777777777-888888888888888-10101010101010101010101010-|
A888888888888888-777777777777777-888888888888888--8-8-8-8-8-8-8101010101010-|
E666666666666666-555555555555555-666666666666666----------------8-8-8-8-8-8-|

x2

This was just the start i was to tired to make the whole song in tabs.
            
Tabs too difficult? Try these video lessons and learn fast.




comments powered by Disqus
↑ Back to top | Tablatures and chords are parodies/interpretations of the original songs. You may use it for private study, scholarship, research or language learning purposes only