>
 >
Lulu

Lulu Guitar Tabs

Rancid - Lulu chords, tabs, tablatures, lyrics

Guitar lessons | Add/correct | Request | Top 50 tabs Artists:  A B C D E F G H I J K L M N O P Q R S T U V W X Y Z 0-9

Lulu Guitar Tabs – Rancid

CD, Sheet music, Poster

Do you like Lulu? Share with your friends now
Tabs
-------------------------------------------------------------------------------
-------------------------------------------------------------------------------

Tuning: Standard

One of my favorites on the album.  People get thrown off by the 
jazzy part, but it's just 7th chords and some smooth playing.

Intro

   Bb  // // // // // // //          F   // // //     F   Ab  A  Bb
E|---------------------------------|---------------------------------|
B|---------------------------------|---------------------------------|
G|---------------------------------|---------------------------------|
D|-8-------------------------------|-3----------------3-/-6-/-7-/-8--|
A|-8-------------------------------|-3----------------3-/-6-/-7-/-8--|
E|-6-------------------------------|-1----------------1-/-4-/-5-/-6--|

   Bb  // // // // //      Bb  B     C    // // // // // // //
E|---------------------------------|---------------------------------|
B|---------------------------------|---------------------------------|
G|---------------------------------|---------------------------------|
D|-8-----------------------8-/-9-/-|-10------------------------------|
A|-8-----------------------8-/-9-/-|-10------------------------------|
E|-6-----------------------6-/-7-/-|-8-------------------------------|

"Lulu..."                          "Ah ah ah ah ah ah"

Clean guitar with chorus         | Use your ears for the rhythm and 
                                 | notes to hit here
                                   
   F     C7      F        C7       Bb7                   Bb7   C7
E|------(8)----|---------(8)-----|(6)--------6----6----|(6)-/-(8)----|             
B|-10----8-----|-10--10---8------|(6)--------6----6----|-6--/--8-----|
G|-10----9-----|-10--10---9------|-7---------7----7----|-7--/--9-----|
D|-10----8-----|-10--10---8------|-6---------6----6----|-6--/--8-----| (2x) 
A|-------10----|----------10-----|-8---------8----8----|-8--/--10----|
E|-------8-----|----------8------|-6--------(6)--(6)---|-6--/--8-----|
 
  "Where the middle class breaks up / The working class better wake up" 
 
   Bb  // // // // // // //          A  // // // // // // // 
E|---------------------------------|---------------------------------|
B|---------------------------------|---------------------------------|
G|---------------------------------|---------------------------------|
D|-8-------------------------------|-7-------------------------------|
A|-8-------------------------------|-7-------------------------------|
E|-6-------------------------------|-5-------------------------------|

  "Some thieves stole our coun-try"

   F                     C
E|---------------------------------|
B|---------------------------------|
G|-10------------------------------|
D|-10--------------------10--------|
A|-8---------------------10--------|
E|-----------------------8---------|

  "America the beautiful /   That's what the sign says..."

   Bb  // // // // // // //  F   // // //                F   Ab  A   Bb
E|-------------------------|---------------------------------------------|
B|-------------------------|---------------------------------------------|
G|-------------------------|---------------------------------------------|
D|-8-----------------------|-3---------------------------3-/-6-/-7-/-8---|
A|-8-----------------------|-3---------------------------3-/-6-/-7-/-8---|
E|-6---------------------- |-1---------------------------1-/-4-/-5-/-6---|

  "From the New York harbor /       "To the San Francisco Bay"
   
   Bb  // // // // //               C   // // // // // // //
E|--------------------------------|---------------------------------|
B|--------------------------------|---------------------------------|
G|--------------------------------|---------------------------------|
D|-8------------------------------|-10------------------------------|
A|-8------------------------------|-10------------------------------|
E|-6------------------------------|-8-------------------------------|





Comments


Popular Rancid tabs & chords
Coppers Bass Tabs
Lady Liberty Bass Tabs
Radio Havana Bass Tabs
Seven Years Down 2 Bass Tabs
Dopesick Intro Tabs
The Wars End Tabs
The Way I Feel 2 Tabs
Animosity Ukulele
Olympia Wa Ukulele
Ruby Soho Ukulele


Song lyrics



↑ Back to top | Tablatures and chords are parodies/interpretations of the original songs. You may use it for private study, scholarship, research or language learning purposes only
© 2014 AZChords.com Contact us | Privacy policy | DMCA | Add/correct tabs | Request tabs | Top 50 tabs