>
 >
Hoover Street

Hoover Street Guitar Tabs

Rancid - Hoover Street chords, tabs, tablatures, lyrics

Guitar lessons | Add/correct | Request | Top 50 tabs Artists:  A B C D E F G H I J K L M N O P Q R S T U V W X Y Z 0-9

Hoover Street Guitar Tabs – Rancid

CD, Sheet music, Poster

Do you like Hoover Street? Share with your friends now
Bass TabsTabsTabs v2
Rancid

    G    A    B    D      
e-----------------------
B-----------------------
G-------------4----7----
D---5----7----4----7----
A---5----7----2----5----
E---3----5--------------


D  A  G  B A (x2)

[No guitar]
She's a Salvador immigrant, head through a thin wall 
A frail hooker, holding her corner walls 
Gleaming sky scraper bunker he looked down 
Laugh hysterically and then he spread around 

   D                           B
On Hoover Street, then he must be alone 
    D                        B
The precious little, the kid cast the woes 
     D                    B
Of a ??? girl she kind of made you spill 
            D              B
Her brother Mario got shot four times in the head

[No guitar]
Now see poor Mario, he caught a hot one
Through the lung, now he's done so God bless him
And the cocaine moves too fast through their system
Like a river forever wandering

       D                 B
To the last party of the under class
    D                                       B
??? distance just a bunch of kids who don't wanna finish last
            D                            B
Now see the market place has changed the weight of the scale 
           D                 B
You either get out and die or go to jail

[No guitar]
And your best intentions splinter and frail
And a few weeks of promises and attempts fail

       D                 B
It's a glass-pipe murder
D                  B
Glass-pipe murder, Oh-oh yeah
D                 B
Glass-pipe murder
       D                  B
It's a glass-pipe murder, Oh-oh-oh-oh

D    A   G   B   A
Yeah     Oh  yeah
   D    A   G   B   A
Oh yeah     Oh  yeah


[No guitar]
They kick a bottle of beer and a letter
Simple things made Mario feel better
You see it falls on you and it falls on me
Self-annihilation, catastrophe 

D                B
Two packs of cigarettes
    D               B
For two dollars and seventy cents and a
D                          B
Bottle of wine that's been opened
            D          B
And he said, "Why do I do this?" 

[No guitar]
A shiver through his body like a bottle of CC
Not encouraging reality or me
He said, "It's who I am baby, back to it."
Off the deep end the record changed 

         D                   B
You see, no one stood up and cheered for him
     D                 B
Everyone sat down with something that happened
  D       B
Began...
   D      B
To happen

[No guitar]
It's an old school dorm mystery
And the handcuffs bleed...        

       D                 B
It's a glass-pipe murder
D                  B
Glass-pipe murder, Oh-oh yeah
D                 B
Glass-pipe murder
       D                  B
It's a glass-pipe murder, Oh-oh-oh-oh

D    A   G   B   A
Yeah     Oh  yeah
   D    A   G   B   A
Oh yeah     Oh  yeah

SOLO:
                                     [x3]
e|----------------------------------------|     
B|---------10-10-10-----------------------| 
G|--7-7----------------7----------7-9-7---|               
D|-------------------------9-9-7----------|
A|----------------------------------------|
E|----------------------------------------|                     

e|-----------------------------11-11--10-10--8-8----------------|      
B|---------10-10-10----------------------------------10-10--10--| 
G|--7-7----------------7----------------------------------------|                   
D|--------------------------------------------------------------|
A|--------------------------------------------------------------|
E|--------------------------------------------------------------|     
                                                                          [x2]
e|-------------8------8-10-11-10-8---------8-10-11-10-8------------------8-----|
B|----10-10-----10------------------10-10-----------------10-10-8-10-10----10--|
G|-----------------------------------------------------------------------------|
D|-----------------------------------------------------------------------------|
A|-----------------------------------------------------------------------------|
E|-----------------------------------------------------------------------------|
     (Let last note ring)

D                   B    D    B
Who was the killer?...
       D    B    D    B 
It's in the...    

   D    A   G   B   A
Oh yeah     Oh  yeah
   D    A   G   B   A
Oh yeah     Oh  yeah
   D           A           G   B   A
Oh yeah, yeah, yeah, yeah, Oh  yeah
   D           A           G   B   A
Oh yeah, yeah, yeah, yeah, Oh  yeah

D





Comments


Popular Rancid tabs & chords
Bob 2 Bass Tabs
Roots Radicals Bass Tabs
Rwanda Bass Tabs
Sick Sick World Bass Tabs
Who Wouldve Thought Bass Tabs
New Orleans Chords
Time Bomb Chords
Ghost Band 1 Tabs
Hooligans Tabs
Ivory Coast 1 Tabs


Song lyrics



↑ Back to top | Tablatures and chords are parodies/interpretations of the original songs. You may use it for private study, scholarship, research or language learning purposes only
© 2014 AZChords.com Contact us | Privacy policy | DMCA | Add/correct tabs | Request tabs | Top 50 tabs