» » »

Rancid, Hoover Street Bass tabs (ver.1)

Artists:  A B C D E F G H I J K L M N O P Q R S T U V W X Y Z # 

Hoover Street Bass tabs (ver.1)

Rancid Tabs
 Rating:
4/5 (4 votes)
Hoover Street  lessons Tabs too difficult? Try these video lessons and learn fast
                (2)
G|--------------------------------------------------------------|
D|---75-----------------------------75--------------------------|
A|-55--75--57-----------22220000--55--75--57-----------22220000-|
E|-------55--75-33-33333----------------55--75-33-33333---------|
 
G|--------------------------------------------|
D|--------------------------------------------|
A|-5---0-5-4-2---0-2-4-5---0-5-4-2---0-2-4-5--|
E|--------------------------------------------|

G|-------------------------------------------------------|
D|-------------------------------------------------------|
A|-0-5-4-222222--0-2-4-555555--0-5-4-222222--0-2-4-55555-|
E|-------------------------------------------------------|
            
Submit corrections

comments powered by Disqus
↑ Back to top | Rancid Bass for Hoover Street. Lyrics for acoustic guitar and electric guitar. Tablatures and chords are parodies/interpretations of the original songs. You may use it for private study, scholarship, research or language learning purposes only