» » »

Rancid, Dope Sick Girl Tabs (ver.2)

Artists:  A B C D E F G H I J K L M N O P Q R S T U V W X Y Z # 

Dope Sick Girl Tabs (ver.2)

Rancid Tabs
Rating:
0/5 (0 votes)
Dope Sick Girl lessons Tabs too difficult? Try these video lessons and learn fast
                Tuning: Standard

What a sick song!!
Note-I use 2 finger powerchords cuz...thats just who i am

Intro: (Bass Part)
e:-------------------------------------------------------------
B:-------------------------------------------------------------
G:-------------------------------------------------------------
D:-------------------------------------------------------------
A:---------12-------12-------12-15-14-12----12-14-15-14-12-----
E:---12h15----12h15----12h15-------------------------------15--
     |_________________________________|
                     X 3

Intro 1: (Guitar Part)
e:---5~---5~---5~---5/11-11-11-11-11--
B:------------------------------------
G:------------------------------------
D:------------------------------------
A:------------------------------------
E:------------------------------------

Intro 2:
e:---0h3h5-0h3h5-0h3h5-8-7-5----5-7-8-7-5-3--
B:-------------------------------------------
G:-------------------------------------------
D:-------------------------------------------
A:-------------------------------------------
E:-------------------------------------------
     |______________________|
     |       X 3
     |_____________________________________|
                      X 2

Verse:
e:-----------------------------
B:-----------------------------
G:-----------------------------  
D:-------77--------------------  X 2
A:---777-55-777-222222-777777--
E:---555----555-000000-555555--

e:---------------------------------
B:---------------------------------
G:---------------------------------
D:---777777------------------------  X 2
A:---555555-777777-222222-777777---
E:----------555555-000000-555555---
PM    .....  .....  .....  .....

Chorus:
e:-----------------------------
B:-----------------------------
G:-----------------------------  
D:-------77--------------------  X 2
A:---777-55-777-222222-777777--
E:---555----555-000000-555555--

e:-------------------
B:-------------------
G:-------------------
D:--9-9-9-9-9-9-9-9--
A:--7-7-7-7-7-7-7-7--
E:-------------------

Do everything again how its put except the bass intro
and when u finish the guitar intro for the third time...i think


Solo:
e:--8888888888-3/5555555555-5/8888888888-3/55555-0--
B:--8888888888-3/5555555555-5/8888888888-3/55555-0--
G:--------------------------------------------------
D:--------------------------------------------------
A:--------------------------------------------------
E:--------------------------------------------------

e:--8-8-8-8-8-8-8-8--555--
B:--8-8-8-8-8-8-8-8--555--
G:------------------------
D:------------------------
A:------------------------
E:------------------------

The 8's are spaced out and the 5's close together.
THEN YOUR DONE!!!!
please comment or rate
TYLER!!!
            
Submit corrections

comments powered by Disqus
↑ Back to top | Rancid Tabs for Dope Sick Girl. Lyrics for acoustic guitar and electric guitar. Tablatures and chords are parodies/interpretations of the original songs. You may use it for private study, scholarship, research or language learning purposes only