» » »

Rancid, Dope Sick Girl Tabs (ver.1)

Artists:  A B C D E F G H I J K L M N O P Q R S T U V W X Y Z # 

Dope Sick Girl Tabs (ver.1)

Rancid Tabs
Rating:
0/5 (0 votes)
Dope Sick Girl lessons Tabs too difficult? Try these video lessons and learn fast
                sweet song


Bass Intro then

Intro
e:-5~-------5~-------5~-------5-7---8---7---5--3-
B:----------------------------5-7---8---7---5--3-
G:-----------------------------------------------
D:-----------------------------------------------
A:-----------------------------------------------
E:-----------------------------------------------
 

Main Riff
Guitar 1	
				 x3		     x1
e:---------------------------------|-------------------|
B:-----10-----10-----10--13--12-10-|-10-12-13-12-10----|
G:-9h12---9h12---9h12--------------|----------------12-|
D:---------------------------------|-------------------|
A:---------------------------------|-------------------|
E:---------------------------------|-------------------|

Guitar 2
e:-----------------------------------------------------------------------
B:-----------------------------------------------------------------------
G:-9999999-7777777-99999999--------------------77777777-99999999----------
D:-9999999-7777777-99999999-77777777--77777777-77777777-99999999-77777777-
A:-7777777-5555555-77777777-77777777--77777777-55555555-77777777-77777777-
E:--------------------------55555555--55555555-------------------55555555-


Verse
e:-----------------------------------------------------------------------
B:-----------------------------------------------------------------------
G:-9-9-9--7777777-99999999--------------------77777777-99999999----------
D:-9-9-9--7777777-99999999-77777777--77777777-77777777-99999999-77777777-
A:-7-7-7--5555555-77777777-77777777--77777777-55555555-77777777-77777777-
E:-------------------------55555555--55555555-------------------55555555-

Chorus (how was i, i to know...)
e:-------------------------------------
B:-------------------------------------
G:-------------------------------------
D:-77777777----------99999999----------  x2
A:-55555555-77777777-77777777-77777777-
E:----------55555555----------55555555-
    *******  *******  *******  *******  (up n down palm mute where its needed)
   How  was I        I   to   know...

Verse
Chorus

Bridge
e:----------------------------
B:----------------------------
G:-9~-----9-9-9-9----9~-------
D:-9~-----9-9-9-9----9~-------  x1
A:-7~-----7-7-7-7----7~-------
E:----------------------------
   Everywheeeeeere...Everywhere she'd go

Main Riff
Verse
Chorus
Verse
Chorus
Bridge
Main Riff x1

Solo/outro				   
Guitar 1						   hold bend
						 	   |------|
e:-88888888-3/5-5-5-3/5-5-5-88888888-5-3-5-0~--8b-88-8b-88-8b888888-8----8----8\-
B:-88888888-3/5-5-5-3/5-5-5-88888888-5-3-5-0~--8b-88-8b-88-8b888888-8----8----8\-
G:-------------------------------------------------------------------------------
D:-------------------------------------------------------------------------------
A:-------------------------------------------------------------------------------
E:-------------------------------------------------------------------------------

Guitar 2
e:---------------------------------------------------
B:---------------------------------------------------
G:-77777777----------99999999------------------------
D:-77777777-77777777-99999999-77777777-7~-7~-7~-7~-7-
A:-55555555-77777777-77777777-77777777-7~-7~-7~-7~-7-
E:----------55555555----------55555555-5~-5~-5~-5~-5-

(the tab's probably not completely rite but there weren't other tabs for it)
            
Submit corrections

comments powered by Disqus
↑ Back to top | Rancid Tabs for Dope Sick Girl. Lyrics for acoustic guitar and electric guitar. Tablatures and chords are parodies/interpretations of the original songs. You may use it for private study, scholarship, research or language learning purposes only