» » »

Adina Tabs (ver.1)

Artists:  A B C D E F G H I J K L M N O P Q R S T U V W X Y Z # 

Adina Tabs (ver.1)

Rancid
Rating:
5/5 (1 vote)

Hard to play? Try these video lessons and learn fast.
                Hey, i got almost all albumtabs of rancid, if u wanna something, tell me ill add it here 

RANCID 1993
1.ADINA

INTRO
e|------6-8---|--6666666666666666-3--15-15-15-15-15-15-15-15---|
B|------6-8---|--6666666666666666-3--15-15-15-15-15-15-15-15---|
G|---5--------|------------------------------------------------|
D|---5--------|------------------------------------------------|
A|---3--------|------------------------------------------------|
E|------------|------------------------------------------------|

VERSE
e|-----------------|
B|-----------------|
G|---5---------5---|
D|---5-----3---5---|
A|---3-----3---3---|
E|---------1-------|

CHORUS ( howd she know the roof would cave in )
e|-------|
B|-------|
G|-------|
D|---5---|
A|---5---|
E|---3---| few times

SOLO
e|------6-8---|--6666666666666666-15-15-15-15-15-15-15-15-18-18-18-18--|
B|------6-8---|--6666666666666666-15-15-15-15-15-15-15-15-18-18-18-18--|
G|---5--------|--------------------------------------------------------|
D|---5--------|--------------------------------------------------------|
A|---3--------|--------------------------------------------------------|
E|------------|--------------------------------------------------------|

OUTRO
e|------6-8---|--8-7-6-11-11-8~~---|
B|------6-8---|--------11-11-8~~---|
G|---5--------|--------------------|
D|---5--------|--------------------|
A|---3--------|--------------------|
E|------------|--------------------|

thats it! its really easy to play
         PLAY::::
INTRO
VERSE
CHORUS
VERSE
CHORUS
SOLO
VERSE ( PALM MUTED this one )
CHORUS
OUTRO


RANCID KICKS ASS!
            
Hard to play? Try these video lessons and learn fast. | Correct




comments powered by Disqus
↑ Back to top | Tablatures and chords are parodies/interpretations of the original songs. You may use it for private study, scholarship, research or language learning purposes only