» » »

Adina Bass tabs (ver.3)

Artists:  A B C D E F G H I J K L M N O P Q R S T U V W X Y Z # 

Adina Bass tabs (ver.3)

Rancid
Rating:
0/5 (0 votes)

Hard to play? Try these video lessons and learn fast.
                - Rancid - Adina

__________
Intro
G|------------------|----|
D|-------------3-3--|----|
A|-3-333333-6-6---6-|-4x-|
E|------------------|----|

G|----------------|----|
D|-5-555555-4-3---|----|
A|--------------6-|-4x-|
E|----------------|----|

Verse [2x]
G|-55-44-3------------------------55-44-3--|----|
D|--------5--33-22-----------------------5-|----|
A|-----------------53--------3-5-----------|-1x-|
E|---------------------33-55---------------|----|

G|-55-44-3-----------------------------------|----|
D|--------5--33-22---------------------------|----|
A|-----------------53--55-33-23--------33-55-|-1x-|
E|-------------------------------3--55-------|----|

Bridge I
G|----------------|----|
D|-5-555555-4-3---|----|
A|--------------6-|-4x-|
E|----------------|----|

Verse [2x]
G|-55-44-3------------------------55-44-3--|----|
D|--------5--33-22-----------------------5-|----|
A|-----------------53--------3-5-----------|-1x-|
E|---------------------33-55---------------|----|

G|-55-44-3-----------------------------------|----|
D|--------5--33-22---------------------------|----|
A|-----------------53--55-33-23--------33-55-|-1x-|
E|-------------------------------3--55-------|----|

Bridge II
G|----------------|----|
D|-5-555555-4-3---|----|
A|--------------6-|-4x-|
E|----------------|----|

G|------------------|----|
D|-------------3-3--|----|
A|-3-333333-6-6---6-|-4x-|
E|------------------|----|

G|----------------|----|
D|-5-555555-4-3---|----|
A|--------------6-|-4x-|
E|----------------|----|

Verse [2x]
G|-55-44-3------------------------55-44-3--|----|
D|--------5--33-22-----------------------5-|----|
A|-----------------53--------3-5-----------|-1x-|
E|---------------------33-55---------------|----|

G|-55-44-3-----------------------------------|----|
D|--------5--33-22---------------------------|----|
A|-----------------53--55-33-23--------33-55-|-1x-|
E|-------------------------------3--55-------|----|

Bridge II
G|----------------|----|
D|-5-555555-4-3---|----|
A|--------------6-|-4x-|
E|----------------|----|

G|------------------|----|
D|-------------3-3--|----|
A|-3-333333-6-6---6-|-4x-|
E|------------------|----|

Ending
G|--------------|----|
D|--------------|----|
A|-3~---6~---3~-|-1x-|
E|--------------|----|
            
Hard to play? Try these video lessons and learn fast. | Correct




comments powered by Disqus
↑ Back to top | Tablatures and chords are parodies/interpretations of the original songs. You may use it for private study, scholarship, research or language learning purposes only