» » »

Ramones, Sheena Is A Punk Rocker Tabs (ver.3)

Artists:  A B C D E F G H I J K L M N O P Q R S T U V W X Y Z # 

Sheena Is A Punk Rocker Tabs (ver.3)

Ramones Tabs
 Rating:
4/5 (4 votes)
Sheena Is A Punk Rocker lessons Tabs too difficult? Try these video lessons and learn fast
1
                
enjoy

Intro/ verse
e-----------------------------
B-----5----------------------
G-----5----------------------
D-----5----------5--------
A-----3----------5--------
E----------------3--------

Chorus:
e-----------------------------
B--------------5--------------
G-----2--------5--------------
D-----2--------5-----5-------
A-----0--------3-----5-------
E--------------------3-------

Main Riff:
e--------------------------------|---------
B--------------------------------|---------
G-----5--------------------------|---------
D-----5----------3-----/-----5---|----5----
A-----3----------3-----/-----5---|----3----
E----------------1-----/-----3---|----3----



Chorus:
e-----------------------------
B--------------5--------------
G-----2--------5--------------
D-----2--------5-----5-------
A-----0--------3-----5-------
E--------------------3-------


repeat intro and that’s it

enjoy it!
            
Submit corrections

comments powered by Disqus
↑ Back to top | Ramones Tabs for Sheena Is A Punk Rocker. Lyrics for acoustic guitar and electric guitar. 1 Tablatures and chords are parodies/interpretations of the original songs. You may use it for private study, scholarship, research or language learning purposes only