» » »

Sheena Is A Punk Rocker Tabs (ver.2)

Artists:  A B C D E F G H I J K L M N O P Q R S T U V W X Y Z # 

Sheena Is A Punk Rocker Tabs (ver.2)

Ramones
Rating:
0/5 (0 votes)

Hard to play? Try these video lessons and learn fast.
                
Intro:
e-----------------------------
B-----5----------------------
G-----5----------------------
D-----5----------5--------
A-----3----------5--------
E----------------3--------

Chorus:
e-----------------------------
B--------------5--------------
G-----2--------5--------------
D-----2--------5-----5-------
A-----0--------3-----5-------
E--------------------3-------

Main Riff:
e--------------------------------|---------
B--------------------------------|---------
G-----5--------------------------|---------
D-----5----------3-----/-----5---|----5----
A-----3----------3-----/-----5---|----3----
E----------------1-----/-----3---|----3----

The last time this riff is played before going into “chorus 2” repeat G5 instead of playing the riff to the end…

Chorus 2:
e---------------------------------------------
B---------------------------------------------
G---------------5-------------------3---------
D-----3---------5---------5---------3---------
A-----3---------3---------5---------1---------
E-----1-------------------3-------------------

This should be 100%, if not e-mail me…
            
Hard to play? Try these video lessons and learn fast. | Correct




comments powered by Disqus
↑ Back to top | Tablatures and chords are parodies/interpretations of the original songs. You may use it for private study, scholarship, research or language learning purposes only