» » »

Sheena Is A Punk Rocker Bass tabs (ver.1)

Artists:  A B C D E F G H I J K L M N O P Q R S T U V W X Y Z # 

Sheena Is A Punk Rocker Bass tabs (ver.1)

Ramones
Rating:
0/5 (0 votes)

Hard to play? Try these video lessons and learn fast.
                Here is 100% correct version of sheena is a punk rocker.This is the RANCID version and is alot better than the original. It’s a bit hard but is one of their best songs to play.

Intro
G ---------------------------|
D ---------------------------|
A –2-333—2-333—2-333—2-333---|
E ---------------------------|

Verse
G -----------2-4-5-5-4-2-------------------------------------------|
D -----2-3-5-------------5-3-2-------------------------2-3-5-3-2---|
A –3-5-------------------------5-3-----2-3-5-3-2---3-5-----------3-|
E ---------------------------------3-5-----------3-----------------|

Pre-Chorus
G –-------------------------------|
D ----3-----3------5---5---3-2-0--|
A –0-----0-----3------------------|
E --------------------------------|

Chorus
G --------------|     -------------------------------------|
D -------33-55--|Then -33333333-------------------11111111-|
A –33333--------|     ----------33333333-55555555----------|
E --------------|     -------------------------------------|
	   7x


Playing Order:

Intro
Verse
Pre-chorus
Chorus
Intro
Verse
Pre-chorus
Chorus
Intro
Chorus (except for the last bit)

You will enjoy this song, that’s all I can say.
            
Hard to play? Try these video lessons and learn fast. | Correct




comments powered by Disqus
↑ Back to top | Tablatures and chords are parodies/interpretations of the original songs. You may use it for private study, scholarship, research or language learning purposes only