» » »

Ramones, Beat On The Brat Tabs (ver.4)

Artists:  A B C D E F G H I J K L M N O P Q R S T U V W X Y Z # 

Beat On The Brat Tabs (ver.4)

Ramones Tabs
 Rating:
4/5 (4 votes)
Beat On The Brat lessons Tabs too difficult? Try these video lessons and learn fast
                Beat on the Brat


ramones






e:-----------------------------------------------|
B:-----------------------------------------------|
G:-----------------------------------------------|
D:-4-4-4-4-4-4--9--4-4-4-4-4-4--9--4-4-9--4-4--9-|
A:-2-2-2-2-2-2--7--2-2-2-2-2-2--7--2-2-7--2-2--7-|
E:-----------------------------------------------|

verse
pm ....................................................................
e:-----------------------------------------------------------------------|
B:-----------------------------------------------------------------------|
G:-----------------------------------------------------------------------|
D:-4-4-4-4-4-4-4-4-4-4-4-4-4-4-4-4-4-4-4-4-4-4-4-4-4-4-4-4-4-4-4-4-4-4-4-|
A:-2-2-2-2-2-2-2-2-2-2-2-2-2-2-2-2-2-2-2-2-2-2-2-2-2-2-2-2-2-2-2-2-2-2-2-|
E:-----------------------------------------------------------------------|

e:------------------------------|
B:------------------------------|
G:------------------------------|
D:-9--9--9-9-9---11-11-11-11-11-|
A:-7--7--7-7-7---9--9--9--9--9--|
E:------------------------------|

pm ....................................................................
e:-----------------------------------------------------------------------|
B:-----------------------------------------------------------------------|
G:-----------------------------------------------------------------------|
D:-4-4-4-4-4-4-4-4-4-4-4-4-4-4-4-4-4-4-4-4-4-4-4-4-4-4-4-4-4-4-4-4-4-4-4-|
A:-2-2-2-2-2-2-2-2-2-2-2-2-2-2-2-2-2-2-2-2-2-2-2-2-2-2-2-2-2-2-2-2-2-2-2-|
E:-----------------------------------------------------------------------|

e:------------------------------|
B:------------------------------|
G:------------------------------|
D:-9--9--9-9-9---11-11-11-11-11-|
A:-7--7--7-7-7---9--9--9--9--9--|
E:------------------------------|

pm ....................................................................
e:-----------------------------------------------------------------------|
B:-----------------------------------------------------------------------|
G:-----------------------------------------------------------------------|
D:-4-4-4-4-4-4-4-4-4-4-4-4-4-4-4-4-4-4-4-4-4-4-4-4-4-4-4-4-4-4-4-4-4-4-4-|
A:-2-2-2-2-2-2-2-2-2-2-2-2-2-2-2-2-2-2-2-2-2-2-2-2-2-2-2-2-2-2-2-2-2-2-2-|
E:-----------------------------------------------------------------------|

e:------------------------------|
B:------------------------------|
G:------------------------------|
D:-9--9--9-9-9---11-11-11-11-11-|
A:-7--7--7-7-7---9--9--9--9--9--|
E:------------------------------|

pm ....................................................................
e:-----------------------------------------------------------------------|
B:-----------------------------------------------------------------------|
G:-----------------------------------------------------------------------|
D:-4-4-4-4-4-4-4-4-4-4-4-4-4-4-4-4-4-4-4-4-4-4-4-4-4-4-4-4-4-4-4-4-4-4-4-|
A:-2-2-2-2-2-2-2-2-2-2-2-2-2-2-2-2-2-2-2-2-2-2-2-2-2-2-2-2-2-2-2-2-2-2-2-|
E:-----------------------------------------------------------------------|


:-----------------------------------------|
:-----------------------------------------|
:-----------------------------------------|
:-77777777---44444444--77777777--44444444-|
:-77777777---44444444--77777777--44444444-|
:-55555555---22222222--55555555--22222222-|

e:-----------------------------------------------------------------------------------------|
B:-----------------------------------------------------------------------------------------|
G:-----------------------------------------------------------------------------------------|
D:-4-4-4-4-4-4--9-9-9-9-9-9--4-4-4-4-4-4--9-9-9-9-9-9--4--4-4--4-4--4-4--4-4--4-4--4-4--4-4|
A:-2-2-2-2-2-2--7-7-7-7-7-7--2-2-2-2-2-2--7-7-7-7-7-7--2--2-2--2-2--2-2--2-2--2-2--2-2--2-2|
E:-----------------------------------------------------------------------------------------|


:----------------------|
:----------------------|
:----------------------|
:-77777777---44444444--|
:-77777777---44444444--|
:-55555555---22222222--|


e:-----------------------------------------------------------------------------------------|
B:-----------------------------------------------------------------------------------------|
G:-----------------------------------------------------------------------------------------|
D:-4-4-4-4-4-4--9-9-9-9-9-9--4-4-4-4-4-4--9-9-9-9-9-9--4--4-4--4-4--4-4--4-4--4-4--4-4--4-4|
A:-2-2-2-2-2-2--7-7-7-7-7-7--2-2-2-2-2-2--7-7-7-7-7-7--2--2-2--2-2--2-2--2-2--2-2--2-2--2-2|
E:-----------------------------------------------------------------------------------------|

:-----------------------------------------|
:-----------------------------------------|
:-----------------------------------------|
:-77777777---44444444--77777777--44444444-|
:-77777777---44444444--77777777--44444444-|
:-55555555---22222222--55555555--22222222-|


e:--------------------------------------------------------------|
B:--------------------------------------------------------------|
G:--------------------------------------------------------------|
D:-4-4-4-4-4-4--9--4-4-4-4-4-4--9--4-4-9--4-4--9--4-4-9--4-4--9-|
A:-2-2-2-2-2-2--7--2-2-2-2-2-2--7--2-2-7--2-2--7--2-2-7--2-2--7-|
E:--------------------------------------------------------------|

verse
pm ....................................................................
e:-----------------------------------------------------------------------|
B:-----------------------------------------------------------------------|
G:-----------------------------------------------------------------------|
D:-4-4-4-4-4-4-4-4-4-4-4-4-4-4-4-4-4-4-4-4-4-4-4-4-4-4-4-4-4-4-4-4-4-4-4-|
A:-2-2-2-2-2-2-2-2-2-2-2-2-2-2-2-2-2-2-2-2-2-2-2-2-2-2-2-2-2-2-2-2-2-2-2-|
E:-----------------------------------------------------------------------|

e:------------------------------|
B:------------------------------|
G:------------------------------|
D:-9--9--9-9-9---11-11-11-11-11-|
A:-7--7--7-7-7---9--9--9--9--9--|
E:------------------------------|

pm ....................................................................
e:-----------------------------------------------------------------------|
B:-----------------------------------------------------------------------|
G:-----------------------------------------------------------------------|
D:-4-4-4-4-4-4-4-4-4-4-4-4-4-4-4-4-4-4-4-4-4-4-4-4-4-4-4-4-4-4-4-4-4-4-4-|
A:-2-2-2-2-2-2-2-2-2-2-2-2-2-2-2-2-2-2-2-2-2-2-2-2-2-2-2-2-2-2-2-2-2-2-2-|
E:-----------------------------------------------------------------------|

e:------------------------------|
B:------------------------------|
G:------------------------------|
D:-9--9--9-9-9---11-11-11-11-11-|
A:-7--7--7-7-7---9--9--9--9--9--|
E:------------------------------|

pm ....................................................................
e:-----------------------------------------------------------------------|
B:-----------------------------------------------------------------------|
G:-----------------------------------------------------------------------|
D:-4-4-4-4-4-4-4-4-4-4-4-4-4-4-4-4-4-4-4-4-4-4-4-4-4-4-4-4-4-4-4-4-4-4-4-|
A:-2-2-2-2-2-2-2-2-2-2-2-2-2-2-2-2-2-2-2-2-2-2-2-2-2-2-2-2-2-2-2-2-2-2-2-|
E:-----------------------------------------------------------------------|

e:------------------------------|
B:------------------------------|
G:------------------------------|
D:-9--9--9-9-9---11-11-11-11-11-|
A:-7--7--7-7-7---9--9--9--9--9--|
E:------------------------------|

pm ....................................................................
e:-----------------------------------------------------------------------|
B:-----------------------------------------------------------------------|
G:-----------------------------------------------------------------------|
D:-4-4-4-4-4-4-4-4-4-4-4-4-4-4-4-4-4-4-4-4-4-4-4-4-4-4-4-4-4-4-4-4-4-4-4-|
A:-2-2-2-2-2-2-2-2-2-2-2-2-2-2-2-2-2-2-2-2-2-2-2-2-2-2-2-2-2-2-2-2-2-2-2-|
E:-----------------------------------------------------------------------|

:-----------------------------------------|
:-----------------------------------------|
:-----------------------------------------|
:-77777777---44444444--77777777--44444444-|
:-77777777---44444444--77777777--44444444-|
:-55555555---22222222--55555555--22222222-|


e:-----------------------------------------------------------------------------------------|
B:-----------------------------------------------------------------------------------------|
G:-----------------------------------------------------------------------------------------|
D:-4-4-4-4-4-4--9-9-9-9-9-9--4-4-4-4-4-4--9-9-9-9-9-9--4--4-4--4-4--4-4--4-4--4-4--4-4--4-4|
A:-2-2-2-2-2-2--7-7-7-7-7-7--2-2-2-2-2-2--7-7-7-7-7-7--2--2-2--2-2--2-2--2-2--2-2--2-2--2-2|
E:-----------------------------------------------------------------------------------------|

:----------------------|
:----------------------|
:----------------------|
:-77777777---44444444--|
:-77777777---44444444--|
:-55555555---22222222--|

e:-----------------------------------------------------------------------------------------|
B:-----------------------------------------------------------------------------------------|
G:-----------------------------------------------------------------------------------------|
D:-4-4-4-4-4-4--9-9-9-9-9-9--4-4-4-4-4-4--9-9-9-9-9-9--4--4-4--4-4--4-4--4-4--4-4--4-4--4-4|
A:-2-2-2-2-2-2--7-7-7-7-7-7--2-2-2-2-2-2--7-7-7-7-7-7--2--2-2--2-2--2-2--2-2--2-2--2-2--2-2|
E:-----------------------------------------------------------------------------------------|

:-----------------------------------------|
:-----------------------------------------|
:-----------------------------------------|
:-77777777---44444444--77777777--44444444-|
:-77777777---44444444--77777777--44444444-|
:-55555555---22222222--55555555--22222222-|

e:---------------------------------------------------------|
B:---------------------------------------------------------|
G:----------------------------------------------------4----|
D:-4-4-4-4-4-4--9--4-4-4-4-4-4--9--4-4-9--4-4--9--4-4-2--4-|
A:-2-2-2-2-2-2--7--2-2-2-2-2-2--7--2-2-7--2-2--7--2-2----2-|
E:---------------------------------------------------------|
            
Submit corrections

comments powered by Disqus
↑ Back to top | Ramones Tabs for Beat On The Brat. Lyrics for acoustic guitar and electric guitar. Tablatures and chords are parodies/interpretations of the original songs. You may use it for private study, scholarship, research or language learning purposes only