» » »

Ramones, Beat On The Brat Tabs (ver.2)

Artists:  A B C D E F G H I J K L M N O P Q R S T U V W X Y Z # 

Beat On The Brat Tabs (ver.2)

Ramones Tabs
 Rating:
3.7/5 (6 votes)
Beat On The Brat lessons Tabs too difficult? Try these video lessons and learn fast
                Release Date: September 15, 2002
Label: Rhin/Mesa/Bluemoon Records
	The Ramones Are:
Vaocals: Joey Ramone
Guitars: Johny Ramone
Bass Guitars: Dee Dee Ramone
Bass Guitars: C.J. Ramone
Drums: Tommy Ramone
Drums: Marky Ramone
Drums: Richie Ramone
	The Ramones Use:
(Unknown)

Standard Tunung
e|--
b|--
g|--
d|--
a|--
e|--


Intro:
e|-------------------------------------------------|
b|-------------------------------------------------|
g|-------------------------------------------------|
d|--7-7-7-7-7-7--2--7-7-7-7-7-7--2--7-7--2--7-7--2-|
a|--7-7-7-7-7-7--2--7-7-7-7-7-7--2--7-7--2--7-7--2-|
e|--5-5-5-5-5-5--0--5-5-5-5-5-5--0--5-5--0--5-5--0-|




Verse:
e|----------------------------------|
b|----------------------------------|
g|----------------------------------|
d|--7-7-7-7-7-7-7-7-7-7-7-7-7-7-7-7-|
a|--7-7-7-7-7-7-7-7-7-7-7-7-7-7-7-7-|
e|--5-5-5-5-5-5-5-5-5-5-5-5-5-5-5-5-|
    . . . . . . . . . . . . . . . . 

Verse:
e|-------------------------------------------------------------------------------|
b|-------------------------------------------------------------------------------|
g|-------------------------------------------------------------------------------|
d|--7----7----7----7----7----7----7----7----7----7----7----7----7----7----7----7-|
a|--7----7----7----7----7----7----7----7----7----7----7----7----7----7----7----7-|
e|--5----5----5----5----5----5----5----5----5----5----5----5----5----5----5----5-|
    .  .  .  .  .  .  .  .  .  .  .  .  .  .  .  . 
    Beat on the brat    beat on the brat    beat on the brat with a baseball bat 

Verse:
e|-----------------------------------
b|-----------------------------------
g|-----------------------------------
d|--7-7-7-7-7-7-7-7--9-9-9-9-9-9-9-9-
a|--7-7-7-7-7-7-7-7--9-9-9-9-9-9-9-9-
e|--5-5-5-5-5-5-5-5--7-7-7-7-7-7-7-7-                                
    Oh yeah Oh yeah    Oh       ho

Verse:
e|----------------------------------|
b|----------------------------------|
g|----------------------------------|
d|--7-7-7-7-7-7-7-7-7-7-7-7-7-7-7-7-|
a|--7-7-7-7-7-7-7-7-7-7-7-7-7-7-7-7-|
e|--5-5-5-5-5-5-5-5-5-5-5-5-5-5-5-5-|
    . . . . . . . . . . . . . . . . 

Verse:
e|-------------------------------------------------------------------------------|
b|-------------------------------------------------------------------------------|
g|-------------------------------------------------------------------------------|
d|--7----7----7----7----7----7----7----7----7----7----7----7----7----7----7----7-|
a|--7----7----7----7----7----7----7----7----7----7----7----7----7----7----7----7-|
e|--5----5----5----5----5----5----5----5----5----5----5----5----5----5----5----5-|
    .  .  .  .  .  .  .  .  .  .  .  .  .  .  .  . 
    Beat on the brat    beat on the brat    beat on the brat with a baseball bat 

Verse:
e|-----------------------------------
b|-----------------------------------
g|-----------------------------------
d|--7-7-7-7-7-7-7-7--9-9-9-9-9-9-9-9-
a|--7-7-7-7-7-7-7-7--9-9-9-9-9-9-9-9-
e|--5-5-5-5-5-5-5-5--7-7-7-7-7-7-7-7-                                
    Oh yeah Oh yeah    Oh       ho

Verse:
e|----------------------------------|
b|----------------------------------|
g|----------------------------------|
d|--7-7-7-7-7-7-7-7-7-7-7-7-7-7-7-7-|
a|--7-7-7-7-7-7-7-7-7-7-7-7-7-7-7-7-|
e|--5-5-5-5-5-5-5-5-5-5-5-5-5-5-5-5-|
    . . . . . . . . . . . . . . . . 

Verse:
e|-----------------------------------
b|-----------------------------------
g|-----------------------------------
d|--7-7-7-7-7-7-7-7--9-9-9-9-9-9-9-9-
a|--7-7-7-7-7-7-7-7--9-9-9-9-9-9-9-9-
e|--5-5-5-5-5-5-5-5--7-7-7-7-7-7-7-7-                                
    Oh yeah Oh yeah    Oh       ho

Verse:
e|----------------------------------|
b|----------------------------------|
g|----------------------------------|
d|--7-7-7-7-7-7-7-7-7-7-7-7-7-7-7-7-|
a|--7-7-7-7-7-7-7-7-7-7-7-7-7-7-7-7-|
e|--5-5-5-5-5-5-5-5-5-5-5-5-5-5-5-5-|
    . . . . . . . . . . . . . . . . 





Chorus:
e|--------------------------------------------------------------------|
b|--------------------------------------------------------------------|
g|--------------------------------------------------------------------|
d|--4--4-4-4-4-4-4---3--3-3-3-3-3-3---4--4-4-4-4-4-4---3--3-3-3-3-3-3-|
a|--4--4-4-4-4-4-4---3--3-3-3-3-3-3---4--4-4-4-4-4-4---3--3-3-3-3-3-3-|
e|--2--2-2-2-2-2-2---1--1-1-1-1-1-1---2--2-2-2-2-2-2---1--1-1-1-1-1-1-|
                                                           What can

Chorus
e|--------------------------------------------------------------------|
b|--------------------------------------------------------------------|
g|--------------------------------------------------------------------|
d|--7--7-7-7-7-7-7---2--2-2-2-2-2-2---7--7-7-7-7-7-7---2--2-2-2-2-2-2-|
a|--7--7-7-7-7-7-7---2--2-2-2-2-2-2---7--7-7-7-7-7-7---2--2-2-2-2-2-2-|
e|--5--5-5-5-5-5-5---0--0-0-0-0-0-0---5--5-5-5-5-5-5---0--0-0-0-0-0-0-|
      you do?                 What can you do?             With a brat      

Chorus:
e|-----------------------------------------|
b|-----------------------------------------|
g|-----------------------------------------|
d|--7---7--7--7--7--7--7--7--7--7--7--7--7-|
a|--7---7--7--7--7--7--7--7--7--7--7--7--7-|
e|--5---5--5--5--5--5--5--5--5--5--5--5--5-|
  like that always on your back    What can

Chorus:
e|----------------------------------|
b|----------------------------------|
g|----------------------------------|
d|--4--4-4-4-4-4-4---3--3-3-3-3-3-3-|
a|--4--4-4-4-4-4-4---3--3-3-3-3-3-3-|
e|--2--2-2-2-2-2-2---1--1-1-1-1-1-1-|
  you loose?                What can  

Chorus
e|--------------------------------------------------------------------|
b|--------------------------------------------------------------------|
g|--------------------------------------------------------------------|
d|--7--7-7-7-7-7-7---2--2-2-2-2-2-2---7--7-7-7-7-7-7---2--2-2-2-2-2-2-|
a|--7--7-7-7-7-7-7---2--2-2-2-2-2-2---7--7-7-7-7-7-7---2--2-2-2-2-2-2-|
e|--5--5-5-5-5-5-5---0--0-0-0-0-0-0---5--5-5-5-5-5-5---0--0-0-0-0-0-0-|
      you do?                 What can you do?             With a brat   

Chorus:
e|-----------------------------------------|
b|-----------------------------------------|
g|-----------------------------------------|
d|--7---7--7--7--7--7--7--7--7--7--7--7--7-|
a|--7---7--7--7--7--7--7--7--7--7--7--7--7-|
e|--5---5--5--5--5--5--5--5--5--5--5--5--5-|

Chorus:
e|----------------------------------|
b|----------------------------------|
g|----------------------------------|
d|--4--4-4-4-4-4-4---3--3-3-3-3-3-3-|
a|--4--4-4-4-4-4-4---3--3-3-3-3-3-3-|
e|--2--2-2-2-2-2-2---1--1-1-1-1-1-1-|
  you loose?                Loose 





Verse:
e|-----------------------------------------------------------------|
b|-----------------------------------------------------------------|
g|-----------------------------------------------------------------|
d|--7-7-7-7-7-7--2--7-7-7-7-7-7--2--7-7--2--7-7--2--7-7--2--7-7--2-|
a|--7-7-7-7-7-7--2--7-7-7-7-7-7--2--7-7--2--7-7--2--7-7--2--7-7--2-|
e|--5-5-5-5-5-5--0--5-5-5-5-5-5--0--5-5--0--5-5--0--5-5--0--5-5--0-|

Verse:
e|----------------------------------|
b|----------------------------------|
g|----------------------------------|
d|--7-7-7-7-7-7-7-7-7-7-7-7-7-7-7-7-|
a|--7-7-7-7-7-7-7-7-7-7-7-7-7-7-7-7-|
e|--5-5-5-5-5-5-5-5-5-5-5-5-5-5-5-5-|
    . . . . . . . . . . . . . . . . 

Verse:
e|-------------------------------------------------------------------------------|
b|-------------------------------------------------------------------------------|
g|-------------------------------------------------------------------------------|
d|--7----7----7----7----7----7----7----7----7----7----7----7----7----7----7----7-|
a|--7----7----7----7----7----7----7----7----7----7----7----7----7----7----7----7-|
e|--5----5----5----5----5----5----5----5----5----5----5----5----5----5----5----5-|
    .  .  .  .  .  .  .  .  .  .  .  .  .  .  .  . 
    Beat on the brat    beat on the brat    beat on the brat with a baseball bat 

Verse:
e|-----------------------------------
b|-----------------------------------
g|-----------------------------------
d|--7-7-7-7-7-7-7-7--9-9-9-9-9-9-9-9-
a|--7-7-7-7-7-7-7-7--9-9-9-9-9-9-9-9-
e|--5-5-5-5-5-5-5-5--7-7-7-7-7-7-7-7-                                
    Oh yeah Oh yeah    Oh       ho

Verse:
e|----------------------------------|
b|----------------------------------|
g|----------------------------------|
d|--7-7-7-7-7-7-7-7-7-7-7-7-7-7-7-7-|
a|--7-7-7-7-7-7-7-7-7-7-7-7-7-7-7-7-|
e|--5-5-5-5-5-5-5-5-5-5-5-5-5-5-5-5-|
    . . . . . . . . . . . . . . . . 

Verse:
e|-------------------------------------------------------------------------------|
b|-------------------------------------------------------------------------------|
g|-------------------------------------------------------------------------------|
d|--7----7----7----7----7----7----7----7----7----7----7----7----7----7----7----7-|
a|--7----7----7----7----7----7----7----7----7----7----7----7----7----7----7----7-|
e|--5----5----5----5----5----5----5----5----5----5----5----5----5----5----5----5-|
    .  .  .  .  .  .  .  .  .  .  .  .  .  .  .  . 
    Beat on the brat    beat on the brat    beat on the brat with a baseball bat 

Verse:
e|-----------------------------------
b|-----------------------------------
g|-----------------------------------
d|--7-7-7-7-7-7-7-7--9-9-9-9-9-9-9-9-
a|--7-7-7-7-7-7-7-7--9-9-9-9-9-9-9-9-
e|--5-5-5-5-5-5-5-5--7-7-7-7-7-7-7-7-                                
    Oh yeah Oh yeah    Oh       ho

Verse:
e|----------------------------------|
b|----------------------------------|
g|----------------------------------|
d|--7-7-7-7-7-7-7-7-7-7-7-7-7-7-7-7-|
a|--7-7-7-7-7-7-7-7-7-7-7-7-7-7-7-7-|
e|--5-5-5-5-5-5-5-5-5-5-5-5-5-5-5-5-|
    . . . . . . . . . . . . . . . . 

Verse:
e|-----------------------------------
b|-----------------------------------
g|-----------------------------------
d|--7-7-7-7-7-7-7-7--9-9-9-9-9-9-9-9-
a|--7-7-7-7-7-7-7-7--9-9-9-9-9-9-9-9-
e|--5-5-5-5-5-5-5-5--7-7-7-7-7-7-7-7-                                
    Oh yeah Oh yeah    Oh       ho

Verse:
e|----------------------------------|
b|----------------------------------|
g|----------------------------------|
d|--7-7-7-7-7-7-7-7-7-7-7-7-7-7-7-7-|
a|--7-7-7-7-7-7-7-7-7-7-7-7-7-7-7-7-|
e|--5-5-5-5-5-5-5-5-5-5-5-5-5-5-5-5-|
    . . . . . . . . . . . . . . . . 





Chorus:
e|--------------------------------------------------------------------|
b|--------------------------------------------------------------------|
g|--------------------------------------------------------------------|
d|--4--4-4-4-4-4-4---3--3-3-3-3-3-3---4--4-4-4-4-4-4---3--3-3-3-3-3-3-|
a|--4--4-4-4-4-4-4---3--3-3-3-3-3-3---4--4-4-4-4-4-4---3--3-3-3-3-3-3-|
e|--2--2-2-2-2-2-2---1--1-1-1-1-1-1---2--2-2-2-2-2-2---1--1-1-1-1-1-1-|
                                                           What can

Chorus
e|--------------------------------------------------------------------|
b|--------------------------------------------------------------------|
g|--------------------------------------------------------------------|
d|--7--7-7-7-7-7-7---2--2-2-2-2-2-2---7--7-7-7-7-7-7---2--2-2-2-2-2-2-|
a|--7--7-7-7-7-7-7---2--2-2-2-2-2-2---7--7-7-7-7-7-7---2--2-2-2-2-2-2-|
e|--5--5-5-5-5-5-5---0--0-0-0-0-0-0---5--5-5-5-5-5-5---0--0-0-0-0-0-0-|
      you do?                 What can you do?             With a brat      

Chorus:
e|-----------------------------------------|
b|-----------------------------------------|
g|-----------------------------------------|
d|--7---7--7--7--7--7--7--7--7--7--7--7--7-|
a|--7---7--7--7--7--7--7--7--7--7--7--7--7-|
e|--5---5--5--5--5--5--5--5--5--5--5--5--5-|
  like that always on your back    What can

Chorus:
e|----------------------------------|
b|----------------------------------|
g|----------------------------------|
d|--4--4-4-4-4-4-4---3--3-3-3-3-3-3-|
a|--4--4-4-4-4-4-4---3--3-3-3-3-3-3-|
e|--2--2-2-2-2-2-2---1--1-1-1-1-1-1-|
  you loose?                What can  

Chorus
e|--------------------------------------------------------------------|
b|--------------------------------------------------------------------|
g|--------------------------------------------------------------------|
d|--7--7-7-7-7-7-7---2--2-2-2-2-2-2---7--7-7-7-7-7-7---2--2-2-2-2-2-2-|
a|--7--7-7-7-7-7-7---2--2-2-2-2-2-2---7--7-7-7-7-7-7---2--2-2-2-2-2-2-|
e|--5--5-5-5-5-5-5---0--0-0-0-0-0-0---5--5-5-5-5-5-5---0--0-0-0-0-0-0-|
      you do?                 What can you do?             With a brat   

Chorus:
e|-----------------------------------------|
b|-----------------------------------------|
g|-----------------------------------------|
d|--7---7--7--7--7--7--7--7--7--7--7--7--7-|
a|--7---7--7--7--7--7--7--7--7--7--7--7--7-|
e|--5---5--5--5--5--5--5--5--5--5--5--5--5-|

Chorus:
e|----------------------------------|
b|----------------------------------|
g|----------------------------------|
d|--4--4-4-4-4-4-4---3--3-3-3-3-3-3-|
a|--4--4-4-4-4-4-4---3--3-3-3-3-3-3-|
e|--2--2-2-2-2-2-2---1--1-1-1-1-1-1-|
  you loose?                Loose 




Outro:
e|-------------------------------------------------|
b|-------------------------------------------------|
g|-------------------------------------------------|
d|--7-7-7-7-7-7--2--7-7-7-7-7-7--2--7-7--2--7-7--2-|
a|--7-7-7-7-7-7--2--7-7-7-7-7-7--2--7-7--2--7-7--2-|
e|--5-5-5-5-5-5--0--5-5-5-5-5-5--0--5-5--0--5-5--0-|
            
Submit corrections

comments powered by Disqus
↑ Back to top | Ramones Tabs for Beat On The Brat. Lyrics for acoustic guitar and electric guitar. Tablatures and chords are parodies/interpretations of the original songs. You may use it for private study, scholarship, research or language learning purposes only