» » »

Beat On The Brat Bass tabs (ver.3)

Artists:  A B C D E F G H I J K L M N O P Q R S T U V W X Y Z # 

Beat On The Brat Bass tabs (ver.3)

Ramones
Rating:
4/5 (5 votes)

Hard to play? Try these video lessons and learn fast.
                Beat on the Brat
RAMONES
Ramones

Standard Tuning 

INTRO

first you play this....
G|-------------------------------------|
D|-------------------------------------|
A|--2-2-2-2-2-2-----2-2-2-2-2-2--------|
E|--------------0---------------0------|

then this....
G|--------------------|
D|--------------------|
A|--2-2----2-2--------|
E|------0------0------|



VERSE

sec>1>
G|-------------------------------------|
D|-------------------------------------|
A|--2-2-2-2-2-2-2-2-2-2-2-2-2-2-2-2----|
E|-------------------------------------|

G|-------------------------------------|
D|-------------------------------------|
A|--2-2-2-2-2-2-2-2-2-2-2-2-2-2-2-2----| 
E|-------------------------------------| 
 >beat on the brat... beat on the brat..

G|-------------------------------------|
D|-------------------------------------|
A|--2-2-2-2-2-2-2-2-2-2-2-2-2-2-2-2----| 
E|-------------------------------------| 
 >beat on the brat with the baseball bat..

G|-------------------------------------|
D|-------------------------------------|
A|-2-2---------------------------------|
E|-----0-0-0-0-0-0-0-0-2-2-2-2-2-2-2-2-| 
 >oh yeah.... o yeah..... uh oh ....


repeat this section^^ two times, and then play this:


Sec>2>
G|-------------------------------------|
D|-------------------------------------|
A|--2-2-2-2-2-2-2-2-2-2-2-2-2-2-2-2----| 
E|-------------------------------------| 

G|-------------------------------------|
D|-------------------------------------|
A|-------------------------------------|
E|-0-0-0-0-0-0-0-0-2-2-2-2-2-2-2-2-----| 
 >oh yeah.... o yeah..... uh oh ....


G|-------------------------------------|
D|-------------------------------------|
A|--2-2-2-2-2-2-2-2-2-2-2-2-2-2-2-2----| 
E|-------------------------------------| 

G|-------------------------------------|
D|-------------------------------------|
A|-0---0-0-0-0-0-0---------------------|
E|-----------------2---2-2-2-2-2-2-----|


Sec>3>

G|-------------------------------------|  
D|-------------------------------------|    
A|-0---0-0-0-0-0-0---------------------|    
E|-----------------2---2-2-2-2-2-2-----|  
                 >What can you do....

G|-------------------------------------|  
D|-------------------------------------|    
A|-2---2-2-2-2-2-2---------------------|    
E|-----------------0---0-0-0-0-0-0-----|  
                 >What can you do....

G|-------------------------------------|  
D|-------------------------------------|    
A|-2---2-2-2-2-2-2---------------------|    
E|-----------------0---0-0-0-0-0-0-----|  
                 >With a brat like that-

G|-------------------------------------|
D|-------------------------------------|
A|--2-2-2-2-2-2-2-2-2-2-2-2-2-2-2-2----| 
E|-------------------------------------| 
  -Always on your back what can you- 

G|-------------------------------------|  
D|-------------------------------------|    
A|-0---0-0-0-0-0-0---------------------|    
E|-----------------2---2-2-2-2-2-2-----|  
  -lose              >What can you do....

G|-------------------------------------|  
D|-------------------------------------|    
A|-2---2-2-2-2-2-2---------------------|    
E|-----------------0---0-0-0-0-0-0-----|  
                     >What can you do....

G|-------------------------------------|  
D|-------------------------------------|    
A|-2---2-2-2-2-2-2---------------------|    
E|-----------------0---0-0-0-0-0-0-----|  
                 >With a brat like that-

G|-------------------------------------|
D|-------------------------------------|
A|--2-2-2-2-2-2-2-2-2-2-2-2-2-2-2-2----| 
E|-------------------------------------| 
  -Always on your back what can you- 

G|-------------------------------------|  
D|-------------------------------------|    
A|-0---0-0-0-0-0-0---------------------|    
E|-----------------2---2-2-2-2-2-2-----|  
  -lose              

G|-------------------------------------|  
D|-------------------------------------|    
A|-0---0-0-0-0-0-0---------------------|    
E|-----------------2---2-2-2-2-2-2-----|  
 >lose....


At this point, play the song again, from the intro. 

comments welcome.
Will K.  
            
Hard to play? Try these video lessons and learn fast. | Correct




comments powered by Disqus
↑ Back to top | Tablatures and chords are parodies/interpretations of the original songs. You may use it for private study, scholarship, research or language learning purposes only