» » »

Ramones, Beat On The Brat Bass tabs (ver.2)

Artists:  A B C D E F G H I J K L M N O P Q R S T U V W X Y Z # 

Beat On The Brat Bass tabs (ver.2)

Ramones Tabs
Rating:
4/5 (3 votes)
Beat On The Brat lessons Tabs too difficult? Try these video lessons and learn fast
                -----------------------------------------------------------------------------
                  The Ramones - Beat on the Brat
-----------------------------------------------------------------------------
Bass: Dee Dee Ramone
Track: 2 (disc 1)


Play entire song twice!
|---------------|----------------|-----------------|------------------|
|---------------|----------------|-----------------|*-----------------|
|------------7--|--------------7-|-----7------7----|*-----------------|
|7-7-7-7-7-7----|-7-7-7-7-7-7----|-7-7----7-7------|--7-7-7-7-7-7-7-7-|


|----------------|----------------|----------------|----------------|
|----------------|----------------|----------------|----------------|
|----------------|----------------|----------------|----------------|
|7-7-7-7-7-7-7-7-|-7-7-7-7-7-7-7-7|7-7-7-7-7-7-7-7-|7-7-7-7-7-7-7-7-|
                  Beat on the brat,beat on the brat,beat on the brat

|----------------|-----------------|--------------------|-----------------|
|----------------|-----------------|-------------------*|-----------------|
|----------------|-7-7-7-7-7-7-7-7-|-9-9-9-9-9-9-9-9---*|-----------------|
|7-7-7-7-7-7-7-7-|-----------------|--------------------|-7-7-7-7-7-7-7-7-|
with a baseball bat!    OH yeah,    Oh yeah,           oh............


|-----------------|-----------------|-----------------|----------------|
|-----------------|-----------------|-----------------|----------------|
|-7-7-7-7-7-7-7-7-|-9-9-9-9-9-9-9-9-|-----------------|----------------|
|-----------------|-----------------|-7-7-7-7-7-7-7-7-|-7-7-7-7-7-7-7-7|                  
Oh yeah,            OH yeah,              oh........ 

                  Chorus 
|----------------|-----------------|-----------------|-----------------|
|----------------|-----------------|-----------------|-----------------|
|----------------|-----------------|-----------------|-----------------|
|-5-5-5-5-5-5-5-5|-2-2-2-2-2-2-2-2-|-5-5-5-5-5-5-5-5-|-2-2-2-2-2-2-2-2-|

|-----------------|-----------------|------------------|-----------------|
|-----------------|*----------------|------------------|-----------------|
|-----------------|*7--7-7--7-7--7-7|------------------|-7--7-7--7-7--7-7|
|-7--7-7--7-7--7-7|-----------------|-7--7-7--7-7--7-7-|-----------------|
 What can you do????           What can you do?? 

|-----------------|----------------|----------------|----------------|
|-----------------|----------------|----------------|----------------|
|-----------------|----------------|----------------|----------------|
|-7-7-7-7-7-7-7-7-|-7-7-7-7-7-7-7-7|-7-7-7-7-7-7-7-7|-7-7-7-7-7-7-7-7|
            With a brat like that, how it's on your back, what can you
 
          
|-----------------|-----------------|----------------|----------------|
|-----------------|---------------*-|----------------|----------------|
|-----------------|---------------*-|----------------|----------------|
|-5-5-5-5-5-5-5-5-|-2-2-2-2-2-2-2-2-|-5-5-5-5-5-5-5-5|-2-2-2-2-2-2-2-2|
 lose???                            ........lose???
            
Submit corrections

comments powered by Disqus
↑ Back to top | Ramones Bass for Beat On The Brat. Lyrics for acoustic guitar and electric guitar. Tablatures and chords are parodies/interpretations of the original songs. You may use it for private study, scholarship, research or language learning purposes only