» » »

Ramones, 53rd & 3rd Bass tabs (ver.3)

Artists:  A B C D E F G H I J K L M N O P Q R S T U V W X Y Z # 

53rd & 3rd Bass tabs (ver.3)

Ramones Tabs
Rating:
4/5 (3 votes)
Hard to play? Try these video lessons and learn fast.
                The Ramones
53rd and 3rd

Intro/Verse
G----------------------------------------------------------------
D-------------------7-7-7-7-----------------------------------
A-7-7-7-7-7-7-5-5-5-----------------------------------------------
E-----------------------------------------------------------------

Chorus
G----------------------------------------------------------------
D----------7-7-7-7-5-5-5-5-7-7-7-7-------------------------------
A--5-5-5-5----------------------------------------------------
E----------------------------------------------------------------

Bridge
G----------------------------------------------------------------
D----------------------------------------------------------------
A----------------------------------------------------------------
E-2-2-2-2-2-2-2-2-0-0-0-0-0-0-0-0-2-2-2-2-2-2-2-0-0-0-0-0-0-0----

G----------------------------------------------------------------
D----------------------------------------------------------------
A----------------------------------------------------------------
E--3-3-3-3-3-3-3-5-5-5-5-5-5-5-3-3-3-3-3-3-3-5-5-5-5-5-5---------

New Chorus
G---------------------------------------------------------------
D----------9-9-9-9-7-7-7-7-9-9-9-9------------------------------
A--7-7-7-7--------------------------------------------------
E---------------------------------------------------------------
            

comments powered by Disqus
↑ Back to top | Ramones Bass for 53rd & 3rd. Lyrics for acoustic guitar and electric guitar. Tablatures and chords are parodies/interpretations of the original songs. You may use it for private study, scholarship, research or language learning purposes only