» » »

53rd & 3rd Bass tabs (ver.1)

Artists:  A B C D E F G H I J K L M N O P Q R S T U V W X Y Z # 

53rd & 3rd Bass tabs (ver.1)

Ramones
Rating:
0/5 (0 votes)

Hard to play? Try these video lessons and learn fast.
                saludos al mario r.a.m.o.n.e.s.


 INTRO "IF YOU THINK YOU CAN WELL COME ON MAN"
G |------------------------------||
D |-----------------------7-7-7--||
A |-7-7-7-7-7--7-7--5-5-5--------||
E |------------------------------||

 CHORUS "53rd &3rd"
G |----------------------------------||
D |---------7-7-7-7-5-5-5-5-7-7-7-7--||
A |-5-5-5-5--------------------------||
E |----------------------------------||

 DEE DEE part "THEN I PULLED OUT MY RAZORBLADE"
G |--------------------------------------------------||
D |--------------------------------------------------||
A |--------------------------------------------------||
E |-7-7-7-7-7-7-7-7-5-5-5-5-5-5-5-5-7-7-7-7-7-7-7-7--||

G |------------------||
D |------------------||
A |------------------||
E |-5-5-5-5-5-5-5-5--||

 DEE DEE part 2 "NOW THE COPS ARE AFTER ME"
G |--------------------------------------------------||
D |--------------------------------------------------||
A |--------------------------------------------------||
E |-3-3-3-3-3-3-3-3-5-5-5-5-5-5-5-5-3-3-3-3-3-3-3-3--||

G |-----------------||
D |-----------------||
A |-----------------||
E |-5-5-5-5-5-5-5---||

 CHORUS "53rd & 3rd" 
G |----------------------------------||
D |---------9-9-9-9-7-7-7-7-9-9-9-9--||
A |-7-7-7-7--------------------------||
E |----------------------------------||

 OUTRO
G |------------------------------||
D |-----------------------7-7-7--||
A |-7-7-7-7-7--7-7--5-5-5--------||
E |------------------------------||


•mxggot•
            
Hard to play? Try these video lessons and learn fast. | Correct




comments powered by Disqus
↑ Back to top | Tablatures and chords are parodies/interpretations of the original songs. You may use it for private study, scholarship, research or language learning purposes only