» » »

Ramones, 53rd & 3rd Bass tabs (ver.2)

Artists:  A B C D E F G H I J K L M N O P Q R S T U V W X Y Z # 

53rd & 3rd Bass tabs (ver.2)

Ramones Tabs
Rating:
0/5 (0 votes)
53rd & 3rd lessons Tabs too difficult? Try these video lessons and learn fast
                53rd & 3rd
By The Ramones

Fig 1 Intro, Verse

|-------------------------------------|
|-------------------------7-7-7-7-7-7-|
|-7-7-7-7-7-7-5-5-5-5-5-5-------------|
|-------------------------------------| repeat several times

Fig 2 Chorus

|---------------------------------|
|---------7-7-7-7-5-5-5-5-7-7-7-7-|
|-5-5-5-5-------------------------|
|---------------------------------| x4

Fig 3
“They took my razor...”

|---------------------------------|
|---------------------------------|
|---------------------------------|
|-6-6-6-6-6-6-6-6-4-4-4-4-4-4-4-4-| x2

|---------------------------------|
|---------------------------------|
|---------------------------------|
|-3-3-3-3-3-3-3-3-5-5-5-5-5-5-5-5-| x2

Fig 4 
3rd Chorus
 
|---------------------------------|
|---------9-9-9-9-7-7-7-7-9-9-9-9-|
|-7-7-7-7-------------------------|
|---------------------------------| x4

Repeat Fig 1 several times and then fade.
            
Submit corrections

comments powered by Disqus
↑ Back to top | Ramones Bass for 53rd & 3rd. Lyrics for acoustic guitar and electric guitar. Tablatures and chords are parodies/interpretations of the original songs. You may use it for private study, scholarship, research or language learning purposes only