» » »

Rammstein, Links 2 3 Left 2 3 Tabs (ver.1)

Artists:  A B C D E F G H I J K L M N O P Q R S T U V W X Y Z # 

Links 2 3 Left 2 3 Tabs (ver.1)

Rammstein Tabs
Rating:
0/5 (0 votes)
Links 2 3  Left 2 3 lessons Tabs too difficult? Try these video lessons and learn fast
                "(4)
This song is meant 2 be played in standard tuning i think but it is slighty easier to play at drop D...so 
here it is.

Tuning: Drop D (D A D G B E)

p.m....| = Palm Mute
/ = Slide Up To
X = Muted Note
~ = Tremelo (Bend Up & Down Quickly)

W/Distortion

Riff A

E|-------------------------------------------------|
B|-------------------------------------------------|
G|-------------------------------------------------| 
D|------2-------2-------2------X--X----5/-7---8----| 
A|------2-------2-------2------X--X----5/-7---8----|
D|--2-2-2---2-2-2---2-2-2------X--X----5/-7---8----| 
p.m....|   |...|   |...|            

Riff B

E|-------------------------------------------------|
B|-------------------------------------------------|
G|-------------------------------------------------|  
D|------2-------2-------2------X--X----8-8-8-------| 
A|------2-------2-------2------X--X----8-8-8-------|
D|--2-2-2---2-2-2---2-2-2------X--X----8-8-8-------| 
p.m....|   |...|   |...|                

Riff C

E|-------------------------------------------------|
B|-------------------------------------------------|
G|-------------------------------------------------|  
D|-----2------5----7-----X--X-X-X----8-------------| 
A|-----2------5----7-----X--X-X-X----8-------------|
D|-----2------5----7-----X--X-X-X----8-------------|


SOLO

E|-------------------------------------------------|
B|-7-8-10-12-10-8-7-8-10-12-10-8-7-8-5~~~~~--------| 
G|-------------------------------------------------| 
D|-------------------------------------------------| 
A|-------------------------------------------------|
D|-------------------------------------------------|

E|-----------------------------------7~~~~~--------|
B|-7-8-10-12-10-8-7-8-10-12-10-8-7-8---------------| 
G|-------------------------------------------------| 
D|-------------------------------------------------| 
A|-------------------------------------------------|
D|-------------------------------------------------|


Playing Order:

Marching Sounds (No guitars)
Riff A x3
Riff B x1
Riff A x2
No Guitars
Riff A x4
No Guitars
Riff A x4
Riff C x2
Riff A (No Distortion) x9
Riff A x 4
SOLO x 2 (Let last note ring out) 
Guitar 2 plays Riff A x4 during SOLO
Riff C x4

There You goo thats the whole song 100% correct not very hard really enjoy!!
"            

comments powered by Disqus
↑ Back to top | Rammstein Tabs for Links 2 3 Left 2 3. Lyrics for acoustic guitar and electric guitar. Tablatures and chords are parodies/interpretations of the original songs. You may use it for private study, scholarship, research or language learning purposes only