>
 >
Halleluja

Halleluja Guitar Tabs

Rammstein - Halleluja chords, tabs, tablatures, lyrics

Guitar lessons | Add/correct | Request | Top 50 tabs Artists:  A B C D E F G H I J K L M N O P Q R S T U V W X Y Z 0-9

Halleluja Guitar Tabs – Rammstein

CD, Sheet music, Poster

Do you like Halleluja? Share with your friends now
Tabs
Symbols used in this tab:

Notes:
w - whole note
h - half note
q - quarter note
e - eighth note
s - sixteenth note

Rests:
W - whole rest
H - Half rest
Q - quarter rest
E - eighth rest
S - sixteenth rest

Articulations:
pm - palm muting
/ - slide up

  intro:
E|-----|---------|--------|---------|--------|---------|
B|-----|---------|--------|---------|--------|---------|
G|-----|---------|--------|---------|--------|---------|
D|-----|---------|--------|---------|--------|---------|
A|-----|----5-5--|--2-----|----3-3--|--2-----|----5-5--|
E|-----|----3-3--|--0-----|----1-1--|--0-----|----3-3--|
    W     H q q     q H+Q    H q q     q H+Q    H q q

  verse 1:
E|--------|---------|--------|---------|
B|--------|---------|--------|---------|
G|.-------|---------|--------|--------.|
D|.-------|---------|--------|--------.|
A|--2-----|----3-3--|--2-----|----5-5--|
E|--0-----|----1-1--|--0-----|----3-3--|
    q H+Q    H q q     q H+Q    H q q

  interlude:
  central guitar (lower in mix)
E|-----------------------------|---------------------|
B|-----------------------------|---------------------|
G|.----------------------------|---------------------|
D|.----------------------------|---------------------|
A|--2---------2---------2------|------2---------3-3--|
E|--0-0-0-0-0-0-0-0-0-0-0-0-0--|--0-0-0-0-0-0-0-1-1--|
 |  e s s s s e s s s s e s s  |  s s e s s s s q q  |
 |    pm-----]  pm-----]  pm-] |  pm-]  pm-----]     |
 |                             |                     |
 |left and right guitars       |                     |
E|-----------------------------|---------------------|
B|-----------------------------|---------------------|
G|.----------------------------|---------------------|
D|.----------------------------|---------------------|
A|--2---------2---------2------|------2---------3-3--|
E|--0-0---0---0-0---0---0-0----|--0---0-0-0-0-0-1-1--|
    e e   e   e e   e   e e       e   e s s s s q q
      pm---]    pm---]    pm      pm    pm-----]

E|-----------------------------|---------------------|
B|-----------------------------|---------------------|
G|-----------------------------|--------------------.|
D|-----------------------------|--------------------.|
A|--2---------2---------2------|------2---------5-5--|
E|--0-0-0-0-0-0-0-0-0-0-0-0-0--|--0-0-0-0-0-0-0-3-3--|
 |  e s s s s e s s s s e s s  |  s s e s s s s q q  |
 |    pm-----]  pm-----]  pm-] |  pm-]  pm-----]     |
 |                             |                     |
E|-----------------------------|---------------------|
B|-----------------------------|---------------------|
G|-----------------------------|--------------------.|
D|-----------------------------|--------------------.|
A|--2---------2---------2------|------2---------5-5--|
E|--0-0---0---0-0---0---0-0----|--0---0-0-0-0-0-3-3--|
    e e   e   e e   e   e e       e   e s s s s q q
      pm---]    pm---]    pm      pm    pm-----]

  verse 2:
  central guitar (lower in mix)
E|-----------------------------|---------------------|
B|-----------------------------|---------------------|
G|.----------------------------|---------------------|
D|.----------------------------|---------------------|
A|--2---------2---------2------|------2---------3-3--|
E|--0-0-0-0-0-0-0-0-0-0-0-0-0--|--0-0-0-0-0-0-0-1-1--|
 |  e s s s s e s s s s e s s  |  s s e s s s s q q  |
 |    pm-----]  pm-----]  pm-] |  pm-]  pm-----]     |
 |                             |                     |
 |left and right guitars       |                     |
E|-----------------------------|---------------------|
B|-----------------------------|---------------------|
G|.----------------------------|---------------------|
D|.----------------------------|---------------------|
A|--2--------------------------|----------------3-3--|
E|--0--------------------------|----------------1-1--|
    q     H+Q                     H             q q

E|-----------------------------|---------------------|
B|-----------------------------|---------------------|
G|-----------------------------|--------------------.|
D|-----------------------------|--------------------.|
A|--2---------2---------2------|------2---------5-5--|
E|--0-0-0-0-0-0-0-0-0-0-0-0-0--|--0-0-0-0-0-0-0-3-3--|
 |  e s s s s e s s s s e s s  |  s s e s s s s q q  |
 |    pm-----]  pm-----]  pm-] |  pm-]  pm-----]     |
 |                             |                     |
E|-----------------------------|---------------------|
B|-----------------------------|---------------------|
G|-----------------------------|--------------------.|
D|-----------------------------|--------------------.|
A|--2--------------------------|----------------5-5--|
E|--0--------------------------|----------------3-3--|
    q     H+Q                     H             q q

 -> interlude

  chorus 1:
E|-----|--------------------|-----|--------------------|
B|-----|--------------------|-----|--------------------|
G|.----|--------------------|-----|--------------------|
D|.----|--------------------|-----|--------------------|
A|--2--|--(2)-2-(2)/-10-10--|--7--|--(7)-7-(7)/-10-10--|
E|--0--|--(0)-0-(0)/-8--8---|--5--|--(5)-5-(5)/-8--8---|
    w  +   e  q +e   q  q      w  +   e  q +e   q  q

                                 1.                 2.
E|-----|------------------|-----|------------------|----------|
B|-----|------------------|-----|------------------|----------|
G|-----|------------------|-----|-----------------.|----------|
D|-----|------------------|-----|-----------------.|----------|
A|--5--|--(5)-5-(5)/-9-9--|--3--|--(3)-3-(3)/-5-5--|--3-------|
E|--3--|--(3)-3-(3)/-7-7--|--1--|--(1)-1-(1)/-3-3--|--1-------|
    w  +   e  q +e   q q     w  +   e  q +e   q q     e H+Q+E

  verse 3: no guitar

  bridge to final chorus:
E|---------|--------|-----------|--------|-----------|
B|---------|--------|-----------|--------|-----------|
G|---------|--------|-----------|--------|-----------|
D|--*------|--------|-----------|--------|-----------|
A|----5-5--|--2-----|----10-10--|--7-----|----10-10--|
E|----3-3--|--0-----|----8--8---|--5-----|----8--8---|
    H q q     q H+Q    H q  q      q H+Q    H q  q
    *last bar of verse 3

E|--------|---------|--------|---------|
B|--------|---------|--------|---------|
G|--------|---------|--------|---------|
D|--------|---------|--------|---------|
A|--5-----|----9-9--|--3-----|----5-5--|
E|--3-----|----7-7--|--1-----|----3-3--|
    q H+Q    H q q     q H+Q    H q q

  final chorus:
E|-----|--------------------|-----|--------------------|
B|-----|--------------------|-----|--------------------|
G|.----|--------------------|-----|--------------------|
D|.----|--------------------|-----|--------------------|
A|--2--|--(2)-2-(2)/-10-10--|--7--|--(7)-7-(7)/-10-10--|
E|--0--|--(0)-0-(0)/-8--8---|--5--|--(5)-5-(5)/-8--8---|
    w  +   e  q +e   q  q      w  +   e  q +e   q  q

E|-----|------------------|-----|------------------|
B|-----|------------------|-----|------------------|
G|-----|------------------|-----|-----------------.|
D|-----|------------------|-----|-----------------.|
A|--5--|--(5)-5-(5)/-9-9--|--3--|--(3)-3-(3)/-5-5--|
E|--3--|--(3)-3-(3)/-7-7--|--1--|--(1)-1-(1)/-3-3--|
    w  +   e  q +e   q q     w  +   e  q +e   q q

 -> interlude

  end:
E|--------|
B|--------|
G|--------|
D|--------|
A|--2-----|
E|--0-----|
    q H+Q





Comments


Popular Rammstein tabs & chords
Daili Lamaa Bass Tabs
Du Hast 4 Bass Tabs
Du Riechst So Gut Bass Tabs
Rosenrot 2 Bass Tabs
BüCk Dich Tabs
Klavier Tabs
Klavier 1 Tabs
Mutter 5 Tabs
Nebel 2 Tabs
Ohne Dich Ukulele


Song lyrics



↑ Back to top | Tablatures and chords are parodies/interpretations of the original songs. You may use it for private study, scholarship, research or language learning purposes only
© 2014 AZChords.com Contact us | Privacy policy | DMCA | Add/correct tabs | Request tabs | Top 50 tabs