» » »

Fire Free Tabs (ver.1)

Artists:  A B C D E F G H I J K L M N O P Q R S T U V W X Y Z # 

Fire Free Tabs (ver.1)

Rammstein
Rating:
0/5 (0 votes)

Hard to play? Try these video lessons and learn fast.
                Drop D
		    1-E
		    2-B
		    3-G
		    4-D
		    5-A
		    6-D

  A#5   G5    G#5   *A#5  C5    D#5   D5
E|---| |---| |---| |---| |---| |---| |---|
B|---| |---| |---| |---| |---| |---| |---|
G|-3-| |---| |---| |---| |-5-| |-8-| |-7-|
D|-3-| |-5-| |-6-| |-8-| |-5-| |-8-| |-7-|
A|-1-| |-5-| |-6-| |-8-| |-3-| |-6-| |-5-|
D|---| |-5-| |-6-| |-8-| |---| |---| |---|

First riff (let ring)
|----|
|----|
|-3~-|
|-3~-|
|-1~-|
|----|

Verse w/wah wah effect (For this put your wah about 1.5 down)
|----------------------|
|----------------------|
|----------------------|
|----------------------|
|----------------------|
|-5-6-5-6-5-6-5-6--6-8-|

Main riff
|----------------------|
|----------------------|
|----------------------|
|-5-6-5-6-5-6-5-6--6-8-|
|-5-6-5-6-5-6-5-6--6-8-|
|-5-6-5-6-5-6-5-6--6-8-|

Verse
(There’s a quick guitar part in the verse I think this is it)
|---------|
|---------|
|-5--8\7--|
|-5--8\7--|
|-3--6\5--|
|---------|
            
Hard to play? Try these video lessons and learn fast. | Correct




comments powered by Disqus
↑ Back to top | Tablatures and chords are parodies/interpretations of the original songs. You may use it for private study, scholarship, research or language learning purposes only