» » »

Feur Frei 5 Stars Tabs (ver.1)

Artists:  A B C D E F G H I J K L M N O P Q R S T U V W X Y Z # 

Feur Frei 5 Stars Tabs (ver.1)

Rammstein
Rating:
0/5 (0 votes)
Tabs too difficult? Try these video lessons and learn fast.
                


INTRO ( just after the electronic part )
----------------------|
----------------------|
----------------------|
-----5- ~ ------------|
-----5- ~ ------------|
-----5- ~ ------------|


VERSES 

----------------------------------------|
----------------------------------------|
----------------------------------------|
----------------------------------------|
----------------------------------------|
-----5/6-5/6-5/6-5/6--888-/-10----------|
                             ^ this chord is a bit hard to hear so if u don’t want don’t play it

PRE-CHORUS

---------------------------|
---------------------------|
---------------------------|
------888-/-10-------------|
------888-/-10-------------|
------888-/-10-------------|

CHORUS
----------------------------------------
----------------------------------------
----------------------------------------
-------5/6--5/6--5/6--5/6---8888--------
-------5/6--5/6--5/6--5/6---8888--------
-------5/6--5/6--5/6--5/6---8888--------

----------------------------------------
----------------------------------------
----------------------------------------
------5- ~ -4- ~ -8- ~ -----------------
------5- ~ -4- ~ -8- ~ -----------------
------5- ~ -4- ~ -8- ~ ----------------- < this part goes when the choir comes in &#8230;






OUTRO 

----------------------------------------
----------------------------------------
----------------------------------------
------5- ~ -4- ~ -8- ~ -----------------
------5- ~ -4- ~ -8- ~ -----------------
------5- ~ -4- ~ -8- ~ -----------------

------------
------------
------------
---5--------
---5--------
---5-------- < finish with 

song : feur frei
album : mutter 
artist : rammstein 
            
Tabs too difficult? Try these video lessons and learn fast.


comments powered by Disqus
↑ Back to top | Tablatures and chords are parodies/interpretations of the original songs. You may use it for private study, scholarship, research or language learning purposes only