» » »

Feuer Und Wasser Bass tabs (ver.2)

Artists:  A B C D E F G H I J K L M N O P Q R S T U V W X Y Z # 

Feuer Und Wasser Bass tabs (ver.2)

Rammstein
Rating:
0/5 (0 votes)

Tabs too difficult? Try these video lessons and learn fast.
                Track: 10
Tunning: (standard)

|no bass|

1:17
g|---------|
d|---------|
a|3~~~~~~~~|
e|---------|

|no bass|

2:05
g|---------------------------------------------------|
d|---------------------------------------------------|
a|------------------3333333311111111-----------------|
e|--4444444444443333----------------4444444411113333-|

You do this one only sometimes
g|----------------------------------------------------|
d|----------------------------------4h666666633335555-|
a|------------------3333333311111111------------------|
e|--4444444411113333----------------------------------|

g|---------------------------------------------------------|
d|------------------4h666666633335555----------------------|
a|-3333333311111111----------------------------------------|
e|------------------------------------444444443--3--33-3333|

play multiple times
g|-------|
d|-------|
a|-3~-33-|
e|-0~-xx-|

g|----------------------------------------------------|
d|----------------------------------4h666666666665555-|
a|------------------3333333311111111------------------|
e|--4444444411113333----------------------------------|

g|-----------------|
d|-----------------|
a|3333333311111111-|
e|-----------------|

g|---------------------------------------------------|
d|----------------------------------4h66666633335555-|
a|------------------3333333311111111-----------------|
e|--4444444411113333---------------------------------|

end note
e|-3-|

I love this song. Have fun with it.
            
Tabs too difficult? Try these video lessons and learn fast.




comments powered by Disqus
↑ Back to top | Tablatures and chords are parodies/interpretations of the original songs. You may use it for private study, scholarship, research or language learning purposes only