» » »

FeuerräDer Tabs (ver.1)

Artists:  A B C D E F G H I J K L M N O P Q R S T U V W X Y Z # 

FeuerräDer Tabs (ver.1)

Rammstein
Rating:
0/5 (0 votes)

Hard to play? Try these video lessons and learn fast.
                Main riff:
E|-----------------| 
B|-----------------|
G|-10-7----8-7-----|
D|-10-7----8-7-----|
A|-8--5-xxx6-5--xxx|
D|-----------------|
 
VERSE:
E|--------------------|--------------------------|
B|--------------------|--------------------------|
G|-7--------8-7-------|-10-7----8-7----10-7----8-|
D|-7--------8-7-------|-10-7----8-7----10-7----8-|
A|-5--------6-5-------|-8--5-xxx6-5-xxx8--5-xxx6-|
D|--------------------|--------------------------|

Bridge
GUITAR 1 
E|------6---6-6b-5----------8---6------6--6-6b--5---------8--22—17--|
B|----7------------6------9-----6b---7------------6-----9-----------|
G|--8------------------10----------8------------------10------------| 1x
D|------------------------------------------------------------------| 
A|------------------------------------------------------------------|
D|------------------------------------------------------------------| 

GUITAR 2
E|------------------------------------------------------| 
B|------------------------------------------------------| 
G|-8-----------8-7-----------7-10-----------12-7--------| 2x     
D|-8-----------8-7-----------7-10-----------12-7--------| 
A|-6-x-x-x-x-x-6-5-x-x-x-x-x-5-8--X-X-X-X-X-10-5-X-X-X-X| 
D|------------------------------------------------------| 

Bridge 2
E|------------------------------------------------------| 
B|------------------------------------------------------| 
G|-8-----------8-7-----------7-10-----------12-7--------|     
D|-8-----------8-7-----------7-10-----------12-7--------| 
A|-6-x-x-x-x-x-6-5-x-x-x-x-x-5-8--X-X-X-X-X-10-5-X-X-X-X| 
D|------------------------------------------------------|

bridge 3 (play as the background of the keyboard and guitar solo´s)
E|-----------| 
B|-----------| 
G|-14-12-9---| 
D|-14-12-9---| 
A|-12-10-7---| 
D|-----------| 
   12x  12x

solo 
E|------------------------------------------------------------| 
B|--------------18-17-15-17-----------------------------------|
G|—17b-17b-14-14------------\14--14/12-12b--------------------|
D|---------------------------------------14-15-17-15-14-15/14-|
A|------------------------------------------------------------|
D|------------------------------------------------------------| 

E|--------------------------------------------|
B|--------------------------------------------|
G|--------------------------------------------|
D|------14-15-17-15-14-15/14------------------|
A|---15---------------------------15-17b------|
E|--------------------------------------------|


Main riff: 8x
Verse    : 4x
Bridge   : 1x
Bridge 2 : 2x
Bridge 3 : 4x
Main riff: 8x
Verse    : 3x
Bridge   : 1x
Bridge 2 : 2x
Solo     : 1x
Main Riff: 8x
Verse    : 3x
Bridge   : 1x
-Silence-
Bridge 2 : 2x
Bridge   : 1x
            
Hard to play? Try these video lessons and learn fast. | Correct




comments powered by Disqus
↑ Back to top | Tablatures and chords are parodies/interpretations of the original songs. You may use it for private study, scholarship, research or language learning purposes only